To celebrate the anniversary, I am giving you (finally...) : iPhone LickByNeck !!!!!!

Sleepy Lagoon (BASIC)

The Platters' tune fingerstyle chord melody guitar BASIC arrangement played in the key of A.

Sleepy Lagoon-The Platters-BASIC ARRANGEMENT played In the key of A.
http://classicalguitartablature.blogspot.com/
E| 9----------------------| 2----------------------|
B| 9-- 9--12------10------| 2-- 2-- 5------ 2------|
G| 9-- 9------11------ 9--| 2-- 2-- 2-- 4----------|
D|----11--11--------------|---- 2-- 2---------- 4--|
A| 0----------------------|------------------------|
E|------------------------| 0----------------------|
http://classicalguitartablature.blogspot.com/
E|------------------------|------------------------|
B|-------- 2--------------|---------------- 2-- 5--|
G|---- 2------ 2------ 2--|-------- 2-- 4----------|
D| 4-------------- 4------|---- 2------------------|
A| 0----------------------|------------------------|
E|------------------------| 0----------------------|
http://classicalguitartablature.blogspot.com/
http://classicalguitartablature.blogspot.com/
E| 9----------------------|-------- 7 5------------|
B|------------10----------|-------- 5 5---- 7-- 5--|
G|-------- 9------ 9------|---------- 6---- 6-- 6--|
D|----11--------------11--|---- 7---------- 7-- 7--|
A| 0----------------------|------------------------|
E|------------------------| 0----------------------|
http://classicalguitartablature.blogspot.com/
E| 2----------------------|------------------------|
B| 2---------- 2----------|-------- 5-- 2----------|
G| 2------ 2---------- 2--|-------- 2-- 2-- 4-- 2--|
D|---- 2---------- 2------|---- 2------ 2----------|
A| 0----------------------|------------------------|
E|------------------------| 0----------------------|
http://classicalguitartablature.blogspot.com/
E|------------------------|------------------------|
B| 2---------- 2----------|------------ 2----------|
G| 2------ 2------ 2------|-------- 2------ 2------|
D|---- 2------------------|-- 2---------------- 2--|
A| 0---------------- 0----|------------------------|
E|------------------------| 0----------------------|
http://classicalguitartablature.blogspot.com/
E|------------------------|------------------------|
B|------------ 2----------|---------------- 2-- 5--|
G|-------- 2------ 2------|------ 2---- 4----------|
D|---- 2-------------- 2--|---- 2------------------|
A| 0----------------------|------------------------|
E|------------------------| 0----------------------|
http://classicalguitartablature.blogspot.com/
E| 9----------------------|-------- 7 5------------|
B|------------10----------|-------- 5 5---- 7-- 5--|
G|-------- 9------ 9------|---------- 6---- 6-- 6--|
D|----11--------------11--|---- 7---------- 7-- 7--|
A| 0----------------------|------------------------|
E|------------------------| 0----------------------|
http://classicalguitartablature.blogspot.com/
E| 2----------------------|-------- 0--------------|
B| 2---------- 2----------|---- 2---- 2-- 0--------|
G|-------- 0--------------|---- 3-------------- 2--|
D|---- 2------------------|---- 2------------------|
A| 1-------------- 2-- 3--| 4----------------------|
E|------------------------|------------------------|
http://classicalguitartablature.blogspot.com/
E|------------------------|------------------------|
B| 2---------- 2----------|------------ 7----------|
G| 2------ 2--------------|-------- 4--------------|
D|---- 1------------------|---- 7------------------|
A| 2-------------- 4-- 5--| 6-------------- 7-- 8--|
E|------------------------|------------------------|
http://classicalguitartablature.blogspot.com/
E|------------------------|------------------------|
B|------------ 7----------|---------------- 7------|
G|-------- 8--------------|-------- 6-- 6------ 6--|
D|---- 7------------------|---- 7------------------|
A| 9----------------------|------------------------|
E|---------------- 9-- 8--| 7----------------------|
http://classicalguitartablature.blogspot.com/
E|------------------------|---------------- 2------|
B| 0---------- 0----------|-------- 2-- 2------ 2--|
G|-------- 1------ 1------|-------- 2-- 2----------|
D|---- 0-------------- 0--|---- 1------------------|
A|------------------------|------------------------|
E| 0----------------------| 2----------------------|
http://classicalguitartablature.blogspot.com/
E|------------------------|------------------------|
B| 0----------------------|---------------- 7------|
G|-------- 1-- 1------ 1--|-------- 6-- 6------ 6--|
D|---- 3---------- 3------|---- 5------------------|
A|------------------------|------------------------|
E| 4----------------------| 6----------------------|
http://classicalguitartablature.blogspot.com/
E|------------------------|------------------------|
B| 5---------- 5----------|------------ 5----------|
G| 2------ 2--------------|-------- 2---- 2--------|
D|---- 4---------- 4------|---- 2-------------- 2--|
A| 2---------------- 2-- 4|------------------------|
E|------------------------|------------------------|
http://classicalguitartablature.blogspot.com/
E|------------------------|---------------- 7------|
B|------------ 7----------|-------- 9 9---- 9-- 9--|
G|-------- 6---- 6--------|-------- 7 7------------|
D|---- 7-------------- 7--|---- 9------ 9----------|
A| 6----------------------|------------------------|
E|------------------------| 0----------------------|
http://classicalguitartablature.blogspot.com/
E| 2----------------------|-------- 4-- 4-- 7-- 4--|
B| 2------ 2--------------|------------------------|
G|------ 2---- 2----------|------ 6----------------|
D|---- 1---------- 1------|---- 7------------------|
A| 2------------------ 2--| 4----------------------|
E|------------------------|------------------------|
http://classicalguitartablature.blogspot.com/
E|------------------------|---------------- 7------|
B| 7------ 7--------------|-------- 9-- 9------ 7--|
G|------ 6---- 6----------|------ 8----------------|
D|---- 7---------- 7------|---- 7------------------|
A| 6---------------- 7----| 9----------------------|
E|------------------------|------------------------|
http://classicalguitartablature.blogspot.com/
E| 0----------------------|------------------------|
B| 3------ 3--------------|-------- 5--------------|
G|------ 1---- 1------ 1--|------ 4---- 4------ 4--|
D|---- 2---------- 2------|---- 6---------- 6------|
A|------------------------| 5----------------------|
E| 0----------------------|------------------------|
http://classicalguitartablature.blogspot.com/
E|------------------------|-------------------- 0--|
B|-------- 5--------------|------------ 0-- 2------|
G|------ 4---- 4------ 4--|-------- 2--------------|
D|---- 2---------- 2------|---- 0------------------|
A| 4----------------------| 2----------------------|
E|------------------------|------------------------|
http://classicalguitartablature.blogspot.com/
E| 9----------------------|-------- 7 5------------|
B|------------10----------|-------- 5 5---- 7-- 5--|
G|-------- 9------ 9------|---------- 6---- 6-- 6--|
D|----11--------------11--|---- 7---------- 7-- 7--|
A| 0----------------------|------------------------|
E|------------------------| 0----------------------|
http://classicalguitartablature.blogspot.com/
E| 2----------------------|------------------------|
B| 2---------- 2----------|-------- 5-- 2----------|
G| 2------ 2---------- 2--|-------- 2-- 2-- 4-- 2--|
D|---- 2---------- 2------|---- 2------ 2----------|
A| 0----------------------|------------------------|
E|------------------------| 0----------------------|
http://classicalguitartablature.blogspot.com/
E|------------------------|------------------------|
B| 2---------- 2----------|------------ 2----------|
G| 2------ 2------ 2------|-------- 2------ 2------|
D|---- 2------------------|-- 2---------------- 2--|
A| 0---------------- 0----|------------------------|
E|------------------------| 0----------------------|
http://classicalguitartablature.blogspot.com/
E|------------------------|------------------------|
B|------------ 2----------|---------------- 2-- 5--|
G|-------- 2------ 2------|------ 2---- 4----------|
D|---- 2-------------- 2--|---- 2------------------|
A| 0----------------------|------------------------|
E|------------------------| 0----------------------|
http://classicalguitartablature.blogspot.com/
E| 9----------------------|-------- 7 5------------|
B|------------10----------|-------- 5 5---- 7-- 5--|
G|-------- 9------ 9------|---------- 6---- 6-- 6--|
D|----11--------------11--|---- 7---------- 7-- 7--|
A| 0----------------------|------------------------|
E|------------------------| 0----------------------|
http://classicalguitartablature.blogspot.com/
E| 2----------------------|-------- 0--------------|
B| 2---------- 2----------|---- 2---- 2-- 0--------|
G|-------- 0--------------|---- 3-------------- 2--|
D|---- 2------------------|---- 2------------------|
A| 1-------------- 2-- 3--| 4----------------------|
E|------------------------|------------------------|
http://classicalguitartablature.blogspot.com/
E|------------------------|------------------------|
B| 0----------------------| 7---------- 7----------|
G| 2------ 2--------------| 4------ 4--------------|
D|---- 0------ 0----------|---- 7------------------|
A| 2-------------- 3-- 4--| 5-------------- 7-- 8--|
E|------------------------|------------------------|
http://classicalguitartablature.blogspot.com/
E|------------------------|-------------------- 5--|
B|------------10----------|---------------- 2------|
G|-------- 7--------------|-------- 2-- 4----------|
D|---- 7------------------|---- 4------------------|
A| 9----------------------| 2----------------------|
E|---------------- 9-- 8--|------------------------|
http://classicalguitartablature.blogspot.com/
E| 2----------------------|------------------ 5----|
B|------------ 2----------| 4-------------- 2------|
G|-------- 2------ 2------| 2------ 2-- 4----------|
D|---- 4-------------- 4--|---- 4------------------|
A| 6----------------------| 4----------------------|
E|------------------------|------------------------|
http://classicalguitartablature.blogspot.com/
E|------------------------|-------------------- 5--|
B| 6---------- 6----------|------------ 0-- 2------|
G| 4------ 4--------------|-------- 2--------------|
D|---- 7---------- 7------|---- 3------------------|
A| 5------------------ 3--| 2----------------------|
E|------------------------|------------------------|
http://classicalguitartablature.blogspot.com/
E|------------------------|------------------------|
B| 5------ 5--------------|------ 5----------------|
G| 4---- 4---- 4----------|------ 5---- 5----------|
D|---- 4---------- 4------|---- 4---------- 4------|
A| 0------------------ 0--|------------------------|
E|------------------------| 4------------------ 4--|
http://classicalguitartablature.blogspot.com/
E|------------------------|---------------------- 2|
B|------ 5----------------|------ 5-- 5-- 3-- 2----|
G|---- 4------ 4----------|------ 3------ 3-- 3----|
D|---- 3---------- 3------|---- 2------------------|
A|------------------------|------------------------|
E| 3------------------ 3--| 2----------------------|
http://classicalguitartablature.blogspot.com/
E|------------------------|------------------------|
B| 3------ 3--------------|------ 3---- 3-- 2------|
G|------ 4---- 4----------|------ 2------------ 4--|
D|-- 4------------ 4------|---- 4------------------|
A| 2------------------ 2--|------------------------|
E|------------------------| 5----------------------|
http://classicalguitartablature.blogspot.com/
E|------------------------|---------- 2-------- 7--|
B| 5------ 5--------------|-------- 3------ 3------|
G| 4---- 4---- 4----------|------ 2----------------|
D|---- 3------------------|---- 4------------------|
A|------------------------|------------------------|
E| 4-------------- 4-- 3--| 2----------------------|
http://classicalguitartablature.blogspot.com/
E| 5----------------------|------------------------|
B| 5------ 5--------------| 6-- 6-- 6-- 3-- 5-- 3--|
G|------ 6---- 6----------| 4-- 4------ 4-- 4-- 4--|
D|---- 7---------- 7------| 7-- 7-- 7-- 3-- 3-- 3--|
A|------------------------| 5----------------------|
E| 0------------------ 0--|------------ 3----------|
http://classicalguitartablature.blogspot.com/
E|------------------------|------------------------|
B|---- 2------------------|------------------------|
G|---- 2------------------|------------------------|
D|-- 2--------------------|------------------------|
A|-- 0--------------------|------------------------|
E|------------------------|------------------------|
http://classicalguitartablature.blogspot.com/

0 ความคิดเห็น:

แสดงความคิดเห็น