To celebrate the anniversary, I am giving you (finally...) : iPhone LickByNeck !!!!!!

The Godfather Waltz (BASIC)

Clasic movie tune fingerstyle chord melody guitar BASIC arrangement played in the key of Em.

The Godfather Waltz-BASIC ARRANGEMENT played In the key of Em.
http://classicalguitartablature.blogspot.com/
E|------------------------|------------------------|
B|-------- 1------ 1------|-------- 1------ 1------|
G|-------- 2------ 2------|-------- 2------ 2------|
D|---- 2------ 2------ 2--|---- 2------ 2------ 2--|
A| 0----------------------| 0----------------------|
E|------------------------|------------------------|
http://classicalguitartablature.blogspot.com/
E| 0---------- 0------ 0--| 1-------------- 0------|
B| 1-------------- 4-- 1--| 1---------- 1----------|
G|-------- 2--------------| 2------ 2--------------|
D|---- 2------------------|---- 2-------------- 2--|
A| 0----------------------|------------------------|
E|------------------------| 0----------------------|
http://classicalguitartablature.blogspot.com/
http://classicalguitartablature.blogspot.com/
E| 0----------------------|------------------------|
B| 1-- 1---------- 1------|-------- 1------ 1------|
G|---- 2------ 2----------|-------- 2------ 2------|
D| 2------ 2---------- 2--|---- 2------ 2------ 2--|
A| 0----------------------|------------------------|
E|------------------------| 0----------------------|
http://classicalguitartablature.blogspot.com/
E| 0---------- 0------ 0--| 1-------------- 0------|
B| 1-------------- 4-- 1--| 1---------- 1----------|
G|-------- 2--------------| 2------ 2--------------|
D|---- 2------------------|---- 2-------------- 2--|
A| 0----------------------|------------------------|
E|------------------------| 0----------------------|
http://classicalguitartablature.blogspot.com/
E| 0----------------------|------------------------|
B| 0-- 0---------- 0------|------------ 0----------|
G| 0-- 0------ 0----------|-------- 0------ 0------|
D|-------- 2---------- 2--|---- 2-------------- 2--|
A|------------------------| 2----------------------|
E| 0----------------------|------------------------|
http://classicalguitartablature.blogspot.com/
E| 0------------------ 0--| 3----------------------|
B| 0---------- 0-- 4------| 5-------------- 5------|
G|-------- 0--------------|-------- 4--------------|
D|---- 2------------------|---- 5------ 5----------|
A|------------------------|------------------------|
E| 0----------------------| 3----------------------|
http://classicalguitartablature.blogspot.com/
E|---------------- 2------| 0----------------------|
B| 4-------------- 4------| 0---------- 0----------|
G| 2------ 2--------------|-------- 0---------- 4--|
D|---- 4------ 4------ 4--|---- 2-------------- 3--|
A| 2----------------------|------------------------|
E|---------------- 2------| 0-------------- 4------|
http://classicalguitartablature.blogspot.com/
E|------------------------|------------------------|
B| 1------ 0------ 1------| 5-------------- 4------|
G| 2------ 2------ 2------| 5------ 5--------------|
D|---- 2------ 2------ 2--|---- 4------ 4------ 4--|
A| 0----------------------|------------------------|
E|------------------------| 5----------------------|
http://classicalguitartablature.blogspot.com/
E|------------------------|------------------------|
B| 0---------- 0----------|-------------- 0--------|
G| 0------ 0---------- 0--|-------- 0--------------|
D| 4-- 4---------- 4------|---- 2------ 2------ 2--|
A|------------------------|------------------------|
E| 3----------------------| 3----------------------|
http://classicalguitartablature.blogspot.com/
E|------------------------|---------------------- 3|
B| 0---------- 0----------|------------ 4 5---- 7 0|
G| 2------ 2--------------|---- 4-- 6-- 4----------|
D|---- 1-------------- 1--|---- 7------------------|
A|------------------------| 6----------------------|
E| 2-------------- 0------|------------------------|
http://classicalguitartablature.blogspot.com/
E|------------------------|------------------------|
B|------------ 0----------|------------ 0----------|
G|-------- 0--------------|-------- 0---- 0--------|
D|---- 0------------------|---- 2-------------- 2--|
A|---------------- 5------| 3----------------------|
E| 0----------------------|------------------------|
http://classicalguitartablature.blogspot.com/
E| 3-------------- 2-- 0--|------------------------|
B| 1---------- 1----------| 4-------------- 5------|
G| 0------ 0--------------| 2------ 2--------------|
D|---- 2------------------|---- 4------ 4----------|
A| 0----------------------| 2----------------------|
E|------------------------|------------------------|
http://classicalguitartablature.blogspot.com/
E| 0----------------------|------------------------|
B| 2----------------------|------------------------|
G| 0---------- 0----------|------------------------|
D|-------- 2--------------|------------------------|
A|---------------- 2------|------------------------|
E| 0---------------- 3----| 0----------------------|
http://classicalguitartablature.blogspot.com/
E| 0-------------- 0------| 0------------ 0--------|
B| 1------ 4--------------| 1------ 4---- 1--------|
G| 2------------------ 2--| 2------ 2--------------|
D|---- 2------ 2----------| 3-- 3------ 3------ 3--|
A| 0----------------------| 0----------------------|
E|------------------------|------------------------|
http://classicalguitartablature.blogspot.com/
E| 0-------------- 0------| 1------ 0--------------|
B| 0------ 4------ 0------| 0------ 0------ 3------|
G| 0------ 0--------------|---------------- 0------|
D|---- 2------ 2------ 2--|---- 2------ 2------ 2--|
A|------------------------|------------------------|
E| 0----------------------| 0----------------------|
http://classicalguitartablature.blogspot.com/
E|------------------------|------------------------|
B| 1------ 0--------------|------------------------|
G| 2------ 2------ 2------| 1------ 1---- 2--------|
D|---- 2------ 2------ 2 2|---- 2------ 2------ 2--|
A| 0----------------------| 0----------------------|
E|------------------------|------------------------|
http://classicalguitartablature.blogspot.com/
E|------------------------|------------------------|
B| 0---------- 0----------|------------ 0----------|
G| 1------ 1------ 1------|-------- 1------ 1------|
D|---- 0-------------- 0--|---- 0-------------- 0--|
A|------------------------| 2----------------------|
E| 0----------------------|------------------------|
http://classicalguitartablature.blogspot.com/
E| 0-------------- 0------| 0------------ 0--------|
B| 1------ 4--------------| 1------ 4---- 1--------|
G| 2------------------ 2--| 2------ 2--------------|
D|---- 2------ 2----------| 3-- 3------ 3------ 3--|
A| 0----------------------| 0----------------------|
E|------------------------|------------------------|
http://classicalguitartablature.blogspot.com/
E| 0-------------- 0------| 3------ 2------ 0------|
B| 0------ 4------ 0------| 0------ 0--------------|
G| 0------ 0---------- 0--| 0-- 0------------------|
D|---- 2------ 2----------|------------ 2------ 2--|
A|------------------------|------------------------|
E| 0----------------------| 0----------------------|
http://classicalguitartablature.blogspot.com/
E|------------------------|------------------------|
B| 3------ 2--------------|---------------------- 3|
G| 4-------------- 4------| 3------ 3------ 4------|
D|---- 4------ 4------ 4--|---- 4------ 4------ 4--|
A|------------------------|------------------------|
E| 2----------------------| 2----------------------|
http://classicalguitartablature.blogspot.com/
E|------------------------|------------------------|
B|------------ 3----------|------------------------|
G| 4------ 4---- 4--------| 4----------------------|
D|---- 4-------------- 4--|-------- 4------ 4------|
A| 2----------------------| 2----------------------|
E|------------------------|------------------------|
http://classicalguitartablature.blogspot.com/
E| 5-------------- 4-- 5--| 6-------------- 5------|
B| 5------ 5------ 5-- 5--| 5------ 5------ 5------|
G|---- 5------ 5----------|---- 5------ 5------ 5--|
D|------------------------|------------------------|
A| 0----------------------| 0----------------------|
E|------------------------|------------------------|
http://classicalguitartablature.blogspot.com/
E| 5----------------------|------------------------|
B|---- 6------------------|------------------------|
G| 7-- 7------ 7----------|-------- 7------ 7------|
D|-------- 7------ 7------|---- 7------ 7------ 7--|
A| 5------------------ 5--|------------------------|
E|------------------------| 5----------------------|
http://classicalguitartablature.blogspot.com/
E| 5-------------- 4-- 5--| 6-------------- 5------|
B| 6---------- 6----------| 6------ 6--------------|
G|-------- 7--------------|---- 7------ 7------ 7--|
D|------ 7----------------|------------------------|
A| 5----------------------| 5----------------------|
E|------------------------|------------------------|
http://classicalguitartablature.blogspot.com/
E| 5----------------------|------------------------|
B|---- 5------------------|------------------------|
G| 5---- 5-------- 5------|-------- 5------ 5------|
D|------------ 7----------|---- 7------ 7------ 7--|
A| 0------------------ 0--|------------------------|
E|------------------------| 0----------------------|
http://classicalguitartablature.blogspot.com/
E| 5---------- 5-- 4-- 5--| 8---------- 8-- 5------|
B| 5------ 5------ 5-- 5--| 5------ 5---------- 5--|
G|---- 5---------- 5------|---- 5------------------|
D|------------------------|------------------------|
A| 0----------------------| 0----------------------|
E|------------------------|------------------------|
http://classicalguitartablature.blogspot.com/
E|---------------- 7------| 5----------------------|
B| 9----------------------| 5-------------- 5------|
G| 7------ 7--------------|-------- 5--------------|
D|---- 9------ 9------ 9--|---- 7------ 7------ 7--|
A|------------------------| 0----------------------|
E| 0----------------------|------------------------|
http://classicalguitartablature.blogspot.com/
E|------------------------| 5-------------- 4------|
B| 6------ 5------ 6------| 6------ 6--------------|
G| 7------ 7------ 7------| 4-- 4------ 4------ 4--|
D|---- 7------ 7------ 7--|------------------------|
A| 5----------------------| 5----------------------|
E|------------------------|------------------------|
http://classicalguitartablature.blogspot.com/
E| 0----------------------|------------------------|
B| 0---------- 0----------|------------ 0----------|
G| 0------ 0------ 0------| 2------ 2------ 2------|
D|------ 2------------ 2--|---- 2-------------- 2--|
A| 3----------------------| 3----------------------|
E|------------------------|------------------------|
http://classicalguitartablature.blogspot.com/
E| 0----------------------|------------ 4-- 5-- 7--|
B| 3---------- 3----------|-------- 7---- 5--------|
G| 1------ 1------ 1------|---- 4------------------|
D|------ 2------------ 2--|---- 6------------------|
A| 2----------------------|------------------------|
E|------------------------| 4----------------------|
http://classicalguitartablature.blogspot.com/
E| 8----------------------|------------------------|
B| 5---------- 5------ 5--|------------ 1----------|
G| 5------ 5---------- 5--|-------- 2---------- 0--|
D|---- 7-------------- 5--|---- 3-------------- 2--|
A| 0----------------------|------------------------|
E|---------------- 3------| 1------------ 0--------|
http://classicalguitartablature.blogspot.com/
E| 8-------------- 7-- 5--| 4-------------- 5------|
B| 6---------- 6----------|------------ 3----------|
G| 5------ 5--------------|-------- 4--------------|
D|---- 7------------------|---- 2-------------- 2--|
A| 5----------------------|------------------------|
E|------------------------| 0----------------------|
http://classicalguitartablature.blogspot.com/
E| 5----------------------|------------------------|
B|------------------------|------------10----------|
G|-------- 5---------- 7--|-------- 9------ 9------|
D|---- 7------ 7------ 6--|---- 7-------------- 7--|
A| 0----------------------|------------------------|
E|---------------- 7------| 8----------------------|
http://classicalguitartablature.blogspot.com/
E| 0----------------------|------------ 4-- 5-- 7--|
B| 3---------- 3----------|-------- 7---- 5--------|
G| 1------ 1------ 1------|---- 4------------------|
D|------ 2------------ 2--|---- 6------------------|
A| 2----------------------|------------------------|
E|------------------------| 4----------------------|
http://classicalguitartablature.blogspot.com/
E| 8----------------------|------------------------|
B| 5---------- 5------ 5--|------------ 1----------|
G| 5------ 5---------- 5--|-------- 2---------- 0--|
D|---- 7-------------- 5--|---- 3-------------- 2--|
A| 0----------------------|------------------------|
E|---------------- 3------| 1------------ 0--------|
http://classicalguitartablature.blogspot.com/
E| 8-------- 7------------|------------------------|
B| 6-------- 8----------10|-------- 9--------------|
G| 5-------- 7---------- 7|-------- 7--------------|
D|------ 7-- 9---- 9------|----10---------- 9------|
A| 5-------- 7---------- 8|-------- 7--------------|
E|------------------------|--------------------10--|
http://classicalguitartablature.blogspot.com/
E|------------------------|------------------------|
B|------10----------------|------------------------|
G|-- 9-- 9----------------|------------------------|
D|-- 9---------- 7--------|------------------------|
A|------------------------|------------------------|
E|------ 8----------------|------------------------|
http://classicalguitartablature.blogspot.com/
E|-- 5--------------------|------------------------|
B|-- 6---------- 6--------|-------------- 6--------|
G|-- 7------ 7------ 7----|---------- 7-------- 7--|
D|------ 7-------------- 7|------ 7----------------|
A|------------------------|------------------------|
E| 7----------------------|-- 6--------------------|
http://classicalguitartablature.blogspot.com/
E|------------------------|------------------------|
B|------------------------|-------------- 7--------|
G|------------------------|------------ 5----------|
D|-- 7--------------------|---------- 7------------|
A|------------------------|------------------------|
E|------------------------|---------- 5------------|
http://classicalguitartablature.blogspot.com/
E|------------------------|------------------------|
B|------------------------|------------------------|
G|------------------------|------------------------|
D|------------------------|------------------------|
A|------------------------|------------------------|
E|------------------------|------------------------|
http://classicalguitartablature.blogspot.com/

0 ความคิดเห็น:

แสดงความคิดเห็น