To celebrate the anniversary, I am giving you (finally...) : iPhone LickByNeck !!!!!!

Time Is Running Out (BASIC)

Muse's tune fingerstyle chord melody guitar BASIC arrangement played in the key of Am.

Time Is Running Out-Muse-BASIC ARRANGEMENT played in the key of Am.
http://classicalguitartablature.blogspot.com/
E|--------------------------------|--------------------------------|
B|--------------------------------|--------------------------------|
G| 2------ 2---------- 2----------| 4------ 4-------- 4------------|
D| 2------ 2---------- 2----------| 4------ 4---------- 4----------|
A| 0-- 0-- 3-- 0-- 0-- 3-- 0-- 0--| 2-- 2-- 5-- 2-- 2-- 5 2---- 2--|
E|--------------------------------|--------------------------------|
http://classicalguitartablature.blogspot.com/
E|--------------------------------|--------------------------------|
B|--------------------------------|--------------------------------|
G| 9---------- 9-------- 9------10|----------10----------10--------|
D| 9---------- 9---------- 9------|10--------10----------10--------|
A| 7-- 7------ 7-- 7------ 7-- 7--| 8 8-------- 8 8-------- 8 8----|
E|-------- 7---------- 7----------|-------- 8---------- 8----------|
http://classicalguitartablature.blogspot.com/
http://classicalguitartablature.blogspot.com/
E|--------------------------------|--------------------------------|
B|---- 1-- 1-- 0 1---- 0 1---- 1--|---- 0-- 0------ 0---- 0--------|
G|---- 2-- 2------ 2---- 2--------|---- 2-- 2-- 2-- 2 2------------|
D|---- 2-- 2---- 2------ 2--------|---- 1-- 1------ 1--------------|
A| 0------ 0------ 0------ 0------| 2------ 2------ 2------ 2------|
E|--------------------------------|--------------------------------|
http://classicalguitartablature.blogspot.com/
E|--------------------------------|--------------------------------|
B|---- 3-- 3-- 0-- 3-- 0-- 3------|---- 1-- 1-- 0-- 1-- 0-- 1------|
G|---- 1-- 1-- 1-- 1-- 1-- 1------|---- 2-- 2-- 2-- 2-- 2-- 2------|
D|---- 2-- 2------ 2------ 2------|---- 3-- 3-- 3-- 3-- 3-- 3-- 3--|
A|--------------------------------|--------------------------------|
E| 0------ 0------ 0------ 0------| 1------ 1------ 1------ 1------|
http://classicalguitartablature.blogspot.com/
E|--------------------------------|--------------------------------|
B|---- 1-- 1-- 0 1---- 0 1---- 1--|---- 0-- 0------ 0---- 0--------|
G|---- 2-- 2------ 2---- 2--------|---- 2-- 2-- 2-- 2 2------------|
D|---- 2-- 2---- 2------ 2--------|---- 1-- 1------ 1--------------|
A| 0------ 0------ 0------ 0------| 2------ 2------ 2------ 2------|
E|--------------------------------|--------------------------------|
http://classicalguitartablature.blogspot.com/
E|--------------------------------|--------------------------------|
B|---- 3-- 3-- 0-- 3-- 0-- 3------|---- 1-- 1-- 0-- 1-- 0-- 1------|
G|---- 1-- 1-- 1-- 1-- 1-- 1------|---- 2-- 2-- 2-- 2-- 2-- 2------|
D|---- 2-- 2------ 2------ 2------|---- 3-- 3-- 3-- 3-- 3-- 3-- 3--|
A|--------------------------------|--------------------------------|
E| 0------ 0------ 0------ 0------| 1------ 1------ 1------ 1------|
http://classicalguitartablature.blogspot.com/
E| 0---------------------- 0------|--------------------------------|
B| 1---------------------- 1------| 4---------------------------- 3|
G| 2------------------------------| 2---------------------- 4---- 1|
D|---- 2------ 2------ 2------ 2--|------ 4---- 4------ 4------ 4--|
A| 0------ 0------ 0------ 0------| 2------ 2------ 2------ 2------|
E|--------------------------------|------------------------------ 0|
http://classicalguitartablature.blogspot.com/
E|-------------------- 0----------|--------------------------------|
B|---------------------------- 3--| 1------------------------------|
G|--------------------------------| 2------------------------------|
D|---- 2------ 2------------------|---- 3------ 3------ 3------ 0--|
A|--------------------------------|--------------------------------|
E|-------- 0------ 0------ 0------| 1------ 1------ 1------ 3------|
http://classicalguitartablature.blogspot.com/
E| 0---------------------- 0------|--------------------------------|
B| 1---------------------- 1------| 4---------------------------- 3|
G| 2------------------------------| 2---------------------- 4---- 1|
D|---- 2------ 2------ 2------ 2--|------ 4---- 4------ 4------ 4--|
A| 0------ 0------ 0------ 0------| 2------ 2------ 2------ 2------|
E|--------------------------------|------------------------------ 0|
http://classicalguitartablature.blogspot.com/
E|-------------------- 0----------|--------------------------------|
B|---------------------------- 3--| 1------------------------------|
G|--------------------------------| 2------------------------------|
D|---- 2------ 2------------------|---- 3------ 3------ 3------ 0--|
A|--------------------------------|--------------------------------|
E|-------- 0------ 0------ 0------| 1------ 1------ 1------ 3------|
http://classicalguitartablature.blogspot.com/
E|--------------------------------|--------------------------------|
B| 0---------- 1-- 1--------------|-------- 3---- 1-------- 0------|
G| 2---------- 2-- 2--------------| 0------ 0------ 0------ 0------|
D| 3---------- 3-- 3--------------| 0------ 0----------------------|
A|--------------------------------|--------------------------------|
E| 1-- 1-- 1-- 1-- 1-- 1-- 1-- 1--| 3-- 3-- 3-- 3-- 3-- 3-- 3-- 3--|
http://classicalguitartablature.blogspot.com/
E|--------------------------------|--------------------------------|
B| 0-------- 1---- 1--------------|-------- 3------ 1------ 0------|
G| 2---------- 2-- 2--------------| 0------ 0------ 0------ 0------|
D| 2------------------------------| 2------ 2------ 2--------------|
A| 0-- 0-- 0-- 0-- 0-- 0-- 0-- 0--| 3-- 3-- 3-- 3-- 3-- 3-- 3-- 3--|
E|--------------------------------|--------------------------------|
http://classicalguitartablature.blogspot.com/
E|--------------------------------|--------------------------------|
B| 0---------- 1-- 1--------------|-------- 3---- 1-------- 0------|
G| 2---------- 2-- 2--------------| 0------ 0------ 0------ 0------|
D| 3---------- 3-- 3--------------| 0------ 0----------------------|
A|--------------------------------|--------------------------------|
E| 1-- 1-- 1-- 1-- 1-- 1-- 1-- 1--| 3-- 3-- 3-- 3-- 3-- 3-- 3-- 3--|
http://classicalguitartablature.blogspot.com/
E|--------------------------------|-------- 0----------------------|
B| 0-------- 1---- 1--------------|-------- 1------ 3------ 1------|
G| 2---------- 2-- 2--------------| 0-------------- 0------ 0------|
D| 2------------------------------| 2-------------- 2--------------|
A| 0-- 0-- 0-- 0-- 0-- 0-- 0-- 0--| 3-- 3-- 3-- 3-- 3-- 3-- 3-- 3--|
E|--------------------------------|--------------------------------|
http://classicalguitartablature.blogspot.com/
E| 0---------- 1-- 1--------------|-------------- 0-------- 1------|
B| 1---------- 1-- 1--------------|-------- 3----------------------|
G| 2---------- 2-- 2--------------| 0------ 0----------------------|
D|--------------------------------| 0------------------------------|
A|--------------------------------|--------------------------------|
E| 1-- 1-- 1-- 1-- 1-- 1-- 1-- 1--| 3-- 3-- 3-- 3-- 3-- 3-- 3-- 3--|
http://classicalguitartablature.blogspot.com/
E| 1---------- 0-- 0--------------|-------- 0----------------------|
B| 1---------- 1-- 1---- 1--------|-------- 1------ 3------ 1------|
G| 2---------- 2-- 2------ 2------| 0-------------- 0------ 0------|
D|------------------------ 2------| 2-------------- 2--------------|
A| 0-- 0-- 0-- 0-- 0-- 0-- 0-- 0--| 3-- 3-- 3-- 3-- 3-- 3-- 3-- 3--|
E|--------------------------------|--------------------------------|
http://classicalguitartablature.blogspot.com/
E| 0---------- 1-- 1--------------|-------------- 0-------- 1------|
B| 1---------- 1-- 1--------------|-------- 3----------------------|
G| 2---------- 2-- 2--------------| 0------ 0----------------------|
D|--------------------------------| 0------------------------------|
A|--------------------------------|--------------------------------|
E| 1-- 1-- 1-- 1-- 1-- 1-- 1-- 1--| 3-- 3-- 3-- 3-- 3-- 3-- 3-- 3--|
http://classicalguitartablature.blogspot.com/
E| 1---------- 0-- 0--------------|-------- 0-- 0 0----------------|
B| 1---------- 1-- 1---- 1--------|-------- 1-- 1-- 3------ 1------|
G| 2---------- 2-- 2------ 2------| 0------ 0-- 0-- 0------ 0-- 7--|
D|------------------------ 2------| 2-------------- 2--------------|
A| 0-- 0-- 0-- 0-- 0-- 0-- 0-- 0--| 3-- 3-- 3-- 3-- 3-- 3-- 3-- 3--|
E|--------------------------------|--------------------------------|
http://classicalguitartablature.blogspot.com/
E|---------------- 5------ 7------| 8 7-- 7-- 5-- 5----------------|
B|---------------- 6------ 6------| 5---- 5------ 5------ 5-- 6----|
G|-------- 7---- 7-------- 7------| 5------ 5------------ 5-- 5----|
D|-------- 7----------------------|--------------------------------|
A| 5-- 5-- 5-- 5-- 5-- 5-- 5-- 5--| 0-- 0-- 0-- 0-- 0-- 0-- 0-- 0--|
E|--------------------------------|--------------------------------|
http://classicalguitartablature.blogspot.com/
E|---------------- 5------ 7------| 8 7-- 7-- 5-- 5----------------|
B|---------------- 6------ 6------| 5---- 5------ 5------ 5-- 6----|
G|-------- 7------ 7--------------| 5------ 5------------ 5-- 5----|
D|-------- 7----------------------|--------------------------------|
A| 5-- 5-- 5-- 5-- 5-- 5-- 5-- 5--| 0-- 0-- 0-- 0-- 0-- 0-- 0-- 0--|
E|--------------------------------|--------------------------------|
http://classicalguitartablature.blogspot.com/
E|---------------- 5------ 7---- 8|-------- 7---------- 8----10----|
B|---------------- 6------ 6------|10------10----------10----10----|
G|-------- 7------ 7--------------| 9------ 9---------- 9------ 9--|
D|-------- 7----------------------|--------------------------------|
A| 5-- 5-- 5-- 5-- 5-- 5-- 5-- 5--| 0-- 0-- 0-- 0-- 0-- 0-- 0-- 0--|
E|--------------------------------|--------------------------------|
http://classicalguitartablature.blogspot.com/
E|12------------------------------|--------------------------------|
B|12---------------------------- 5|---------- 5------------ 5------|
G| 9-------- 9---------- 9------ 4|------------ 4---------- 4------|
D|------------ 9-------- 9------ 2|------------ 2---------- 2------|
A|--------------------------------|------------------------ 0------|
E| 0-- 0-- 0-- 0-- 0-- 0-- 0-- 0--| 0-- 0-- 0-- 0-- 0-- 0-- 0-- 0--|
http://classicalguitartablature.blogspot.com/
E|--------------------------------|--------------------------------|
B|--------------------------------|--------------------------------|
G| 2------ 2---------- 2----------| 4------ 4-------- 4------------|
D| 2------ 2---------- 2----------| 4------ 4---------- 4----------|
A| 0-- 0-- 3-- 0-- 0-- 3-- 0-- 0--| 2-- 2-- 5-- 2-- 2-- 5 2---- 2--|
E|--------------------------------|--------------------------------|
http://classicalguitartablature.blogspot.com/
E|--------------------------------|--------------------------------|
B|--------------------------------|--------------------------------|
G| 9---------- 9-------- 9------10|----------10----------10--------|
D| 9---------- 9---------- 9------|10--------10----------10--------|
A| 7-- 7------ 7-- 7------ 7-- 7--| 8 8-------- 8 8-------- 8 8----|
E|-------- 7---------- 7----------|-------- 8---------- 8----------|
http://classicalguitartablature.blogspot.com/
E|--------------------------------|--------------------------------|
B| 5------------------------------|--------------------------------|
G| 2------------------------------|--------------------------------|
D| 2------------------------------|--------------------------------|
A| 0------------------------------|--------------------------------|
E|--------------------------------|--------------------------------|
http://classicalguitartablature.blogspot.com/

0 ความคิดเห็น:

แสดงความคิดเห็น