To celebrate the anniversary, I am giving you (finally...) : iPhone LickByNeck !!!!!!
0 com

Always (BASIC)

Bon Jovi's tune fingerstyle chord melody guitar BASIC arrangement played in the key of E.

Always-Bon Jovi- BASIC ARRANGEMENT played in the key of E.
http://classicalguitartablature.blogspot.com/
E|------------ 4 5-- 4-------- 4--| 0------------------------------|
B| 5---- 5-- 7 5-- 5 5---- 7-- 5--| 2---- 2---------------- 2------|
G| 4---- 4-- 4 4-- 4 4---- 4-- 4--|-------- 2-------------- 2------|
D|---- 6-- 6 6------------ 6------|---- 2-------------- 2----------|
A|--------------------------------| 0---------- 0-- 0---------- 0--|
E| 0-------------- 0--------------|--------------------------------|
http://classicalguitartablature.blogspot.com/
E|------------ 4 5---- 4 2-- 4-- 0|--------------------------------|
B| 5---- 5-- 7-- 4-- 4-- 4-- 4-- 2|-------- 2----------------------|
G| 6---- 6------------ 4 4-- 4-- 2|-------- 2-------------- 2------|
D|---- 6------------------------ 2|-- 2---------------- 2----------|
A| 4-------------- 2--------------| 0---------- 0-- 0--------------|
E|--------------------------------|--------------------------------|
http://classicalguitartablature.blogspot.com/
http://classicalguitartablature.blogspot.com/
E|--------------------------------|--------------------------------|
B|--------------------------------|------------ 0------------------|
G|-------- 1 1 1-- 1-- 1------ 1--| 1-- 1-------- 1------ 1--------|
D|---- 2---------------- 2--------| 2------ 2-------- 2------ 2----|
A| 4------------------------------| 2------------------------------|
E|--------------------------------|--------------------------------|
http://classicalguitartablature.blogspot.com/
E|--------------------------------|--------------------------------|
B|--------------------------------|--------------------------------|
G|-------- 2 2 2-- 2 2------ 2----|------------ 4---------- 4------|
D|---- 2-- 2 2-- 2 2 2---- 2------| 6 6-------- 6---- 4-------- 4--|
A| 0------------------------------|--------------------------------|
E|--------------------------------| 4-------------- 7--------------|
http://classicalguitartablature.blogspot.com/
E|--------------------------------|--------------------------------|
B|--------------------------------|------------ 0 2-- 0------------|
G|-------- 1 1 1-- 1-- 1------ 1--| 1-- 1-------------- 1---- 1----|
D|---- 2---------------- 2--------| 2------ 2-------------- 2------|
A| 4------------------------------| 2-------------- 2--------------|
E|--------------------------------|--------------------------------|
http://classicalguitartablature.blogspot.com/
E|--------------------------------|--------------------------------|
B|--------------------------------|--------------------------------|
G|-------- 2 2 2-- 2 2------ 2----|------------ 4---------- 4------|
D|---- 2-- 2 2-- 2 2 2---- 2------| 6 6-------- 6---- 4-------- 4--|
A| 0------------------------------|--------------------------------|
E|--------------------------------| 4-------------- 7--------------|
http://classicalguitartablature.blogspot.com/
E|--------------------------------|--------------------------------|
B|-------- 2 2 2-- 2 2-------- 5 5|-- 4-- 4---- 4------------ 4-- 5|
G|-------- 4 4 4-- 4 4---------- 4|-- 4-- 4-- 6---------- 4------ 6|
D|---- 2-- 2 2 2-- 2------ 2---- 4|---- 4 4---------- 4---------- 7|
A| 4-------------- 4------------ 6|-------------- 6----------------|
E|--------------------------------|--------------------------------|
http://classicalguitartablature.blogspot.com/
E|---------------------------- 4--| 4-- 2-- 2------ 4-- 5 4-- 2----|
B|-- 5-- 5-- 5 5------ 5-- 5------| 4-- 4-- 4-- 5-- 5---- 2--------|
G|-- 6-- 6-- 6-- 6---- 6-- 6------| 4-- 4-- 4---- 6------ 2--------|
D|---- 7 7-- 7 7------ 7-- 7------|--------------------------------|
A|--------------------------------| 2------------ 0-------- 2------|
E| 0-------------- 0--------------|--------------------------------|
http://classicalguitartablature.blogspot.com/
E|------------------------ 7------|--------------------------------|
B| 5------ 5------------------10--|-- 9------------------ 7--------|
G| 4------ 4----------------------|-- 8------------------ 8-- 9----|
D|---- 6-------------- 6----------|-------- 9---------- 9----------|
A|--------------------------------|--------------------------------|
E| 0---------- 0-- 0--------------| 7-------- 7---- 7--------------|
http://classicalguitartablature.blogspot.com/
E|--------------------------------| 4------ 4----------------------|
B| 5 2---------------------- 2----| 5------ 5 7-- 7---------- 7----|
G| 2 2------------------ 2--------| 6------------ 4-------- 4------|
D| 4 4---- 4---------- 4----------|---- 6-------- 4---- 4----------|
A|--------------------------------| 4------------------------------|
E| 2---------- 2-- 2--------------|---------------- 7--------------|
http://classicalguitartablature.blogspot.com/
E|------------------------ 7------|--------------------------------|
B| 5------ 5------------------10--|-- 9------------------ 7--------|
G| 4------ 4----------------------|-- 8------------------ 8-- 9----|
D|---- 6-------------- 6----------|-------- 9---------- 9----------|
A|--------------------------------|--------------------------------|
E| 0---------- 0-- 0--------------| 7-------- 7---- 7--------------|
http://classicalguitartablature.blogspot.com/
E|--------------------------------| 4------ 4----------------------|
B| 5 2---------------------- 2----| 5------ 5 7-- 7---------- 7----|
G| 2 2------------------ 2--------| 6------------ 4-------- 4------|
D| 4 4---- 4---------- 4----------|---- 6-------- 4---- 4----------|
A|--------------------------------| 4------------------------------|
E| 2---------- 2-- 2--------------|---------------- 7--------------|
http://classicalguitartablature.blogspot.com/
E| 4 4 4---- 4 4 5-- 4 7---- 4----| 5 4 4---- 4 4 5-- 4-- 7--------|
B| 5 5 5---- 5 5 5-- 5 5---- 5----| 4 4-- 4-- 4 4 4-- 4-- 7---- 9--|
G| 4 4 4---- 4-- 4-- 4 4---- 4-- 4|---- 4 4-- 4 4 4-- 4-- 8--------|
D|--------------------------------|--------------------------------|
A|--------------------------------|------------------------ 9------|
E| 0------ 0------ 0------ 0------| 2------ 2---- 2----------------|
http://classicalguitartablature.blogspot.com/
E| 5-- 4------ 5 5 5 4------ 2 4--| 4 2 2--------------------------|
B| 2-- 2 5---- 2 2 2 2-- 5--------| 4-- 4---------- 5---- 4--------|
G| 2-- 2------ 2 2 2--------------| 4 4-- 4---- 4-- 2---- 4--------|
D|--------------------------------|-------------------- 2---- 4----|
A| 0------ 0------ 0------ 0------| 2------ 2------ 0---- 2------ 5|
E|--------------------------------|--------------------------------|
http://classicalguitartablature.blogspot.com/
E|---------------------- 5-- 5----|--------------------------------|
B|------ 7-- 7-- 7-- 8------ 3----|-- 3-- 3-------- 5------ 5------|
G|------ 7-- 7-- 7-- 7------ 4----|-- 4-- 4-------- 2------ 2------|
D|------ 7---------- 7------------|-- 5-- 5-------- 2------ 2------|
A|---- 5 5---- 5 5---- 5 5--------|---------------- 0-- 0-- 0-- 0--|
E|------------------------------ 3|-- 3-- 3-- 3--------------------|
http://classicalguitartablature.blogspot.com/
E|---------------------- 5-- 5----|------ 7---------------------- 2|
B| 7------ 7-- 7 7-- 8------ 3----|------ 3-- 8---------- 7------ 3|
G| 7------ 7-- 7 7-- 7------ 4----|------ 4-- 6---------- 6--------|
D|-------- 7-- 7 7-- 7------------|------------ 7-------- 7--------|
A| 5-- 5-- 5-- 5 5-- 5-- 5--------|--------------------------------|
E|------------------------------ 3|-- 3-- 3------ 5-- 5-- 5-- 5----|
http://classicalguitartablature.blogspot.com/
E|------ 2-- 2-- 2---- 0----------|-------- 3 3-- 3---- 2----------|
B|------ 3------------------ 3----| 3------ 3-- 3 3---------- 3-- 5|
G|------ 4------------------------| 0------------ 0----------------|
D|--------------------------------| 0------------------------------|
A| 2-- 2 2---- 2-- 0 0-- 0-- 0----|--------------------------------|
E|--------------------------------| 3-- 3-- 3-- 3 3---- 3-- 3 3----|
http://classicalguitartablature.blogspot.com/
E|--------------------------------| 2-- 2-- 2-- 2-- 2--------------|
B|---------------------------- 3--| 2-- 2-- 2-- 2-- 2-- 5-- 5------|
G| 2------ 2------ 2------ 2-- 2--| 2-- 2-- 2-- 2-- 2-- 2-- 2------|
D| 2------ 2----------------------|-------------------- 2-- 4------|
A| 0-- 0-- 0-- 0-- 0-- 0-- 0-- 0--| 0-- 0-- 0-- 0-- 0-- 0-- 2-- 2--|
E|--------------------------------|--------------------------------|
http://classicalguitartablature.blogspot.com/
E| 5 4------------ 5 4------------| 4 2 2 2 2 2 2 2 2-- 2 2------ 2|
B| 2 2-- 5-------- 2---- 5--------| 4 4 4 4 4 4 4 4 4-- 4 4---- 4--|
G| 2 2------ 2-- 2 2---------- 4--| 4 4 4 4 4 4 4 4 4-- 4 4------ 4|
D|--------------------------------|--------------------------------|
A| 0-- 0-- 0-- 0-- 0-- 0-- 0-- 0--| 2-- 2-- 2-- 2-- 2-- 2-- 2-- 2--|
E|--------------------------------|--------------------------------|
http://classicalguitartablature.blogspot.com/
E|------------------------------ 4| 4-------------- 4-- 5 4---- 2--|
B| 5 5-- 5 5 5-- 5 5-- 5 5--------| 7-- 7-- 7 7 7-- 2-- 2 4---- 4--|
G| 2 2-- 2 2 2-- 2 2-- 2 2--------| 4-- 4-- 6 6-- 6---- 2-- 4-- 4--|
D| 2 2-- 2 2 2-- 2 2-- 2 2--------|---- 4-- 7 7-- 7----------------|
A| 4------ 4------ 4------ 4------| 6-------------- 0------ 2------|
E|--------------------------------|-------- 0----------------------|
http://classicalguitartablature.blogspot.com/
E|------------------------ 7------|--------------------------------|
B| 5------ 5------------------10--|-- 9------------------ 7--------|
G| 4------ 4----------------------|-- 8------------------ 8-- 9----|
D|---- 6-------------- 6----------|-------- 9---------- 9----------|
A|--------------------------------|--------------------------------|
E| 0---------- 0-- 0--------------| 7-------- 7---- 7--------------|
http://classicalguitartablature.blogspot.com/
E|--------------------------------| 4------ 4----------------------|
B| 5 2---------------------- 2----| 5------ 5 7-- 7---------- 7----|
G| 2 2------------------ 2--------| 6------------ 4-------- 4------|
D| 4 4---- 4---------- 4----------|---- 6-------- 4---- 4----------|
A|--------------------------------| 4------------------------------|
E| 2---------- 2-- 2--------------|---------------- 7--------------|
http://classicalguitartablature.blogspot.com/
E|------------------------ 7------|--------------------------------|
B| 5------ 5------------------10--|-- 9------------------ 7--------|
G| 4------ 4----------------------|-- 8------------------ 8-- 9----|
D|---- 6-------------- 6----------|-------- 9---------- 9----------|
A|--------------------------------|--------------------------------|
E| 0---------- 0-- 0--------------| 7-------- 7---- 7--------------|
http://classicalguitartablature.blogspot.com/
E|--------------------------------| 4------ 4----------------------|
B| 5 2---------------------- 2----| 5------ 5 7-- 7---------- 7----|
G| 2 2------------------ 2--------| 6------------ 4-------- 4------|
D| 4 4---- 4---------- 4----------|---- 6-------- 4---- 4----------|
A|--------------------------------| 4------------------------------|
E| 2---------- 2-- 2--------------|---------------- 7--------------|
http://classicalguitartablature.blogspot.com/
E| 4 4 4---- 4 4 5-- 4 7---- 4----| 5 4 4---- 4 4 5-- 4-- 7--------|
B| 5 5 5---- 5 5 5-- 5 5---- 5----| 4 4-- 4-- 4 4 4-- 4-- 7---- 9--|
G| 4 4 4---- 4-- 4-- 4 4---- 4-- 4|---- 4 4-- 4 4 4-- 4-- 8--------|
D|--------------------------------|--------------------------------|
A|--------------------------------|------------------------ 9------|
E| 0------ 0------ 0------ 0------| 2------ 2---- 2----------------|
http://classicalguitartablature.blogspot.com/
E| 5-- 4------ 5 5 5 4------ 2 4--| 4 2 2--------------------------|
B| 2-- 2 5---- 2 2 2 2-- 5--------| 4-- 4---------- 5---- 4------ 5|
G| 2-- 2------ 2 2 2--------------| 4 4-- 4---- 4-- 2---- 4--------|
D|--------------------------------|-------------------- 2---- 4----|
A| 0------ 0------ 0------ 0------| 2------ 2------ 0---- 2--------|
E|--------------------------------|--------------------------------|
http://classicalguitartablature.blogspot.com/
E|------------ 4 5-- 4------ 4----| 0------------------------------|
B|------ 5-- 7 5 5-- 5-- 7-- 5----| 2---- 2---------------- 2------|
G| 4---- 4-- 4 4 4-- 4-- 4-- 4----|-------- 2-------------- 2------|
D|-- 6---- 6 6---------- 6--------|---- 2-------------- 2----------|
A|--------------------------------| 0---------- 0-- 0---------- 0--|
E| 0------------ 0----------------|--------------------------------|
http://classicalguitartablature.blogspot.com/
E|------------ 4 5---- 4 2-- 4-- 0|--------------------------------|
B| 5---- 5-- 7-- 4-- 4-- 4-- 4-- 2|-------- 2----------------------|
G| 6---- 6------------ 4 4-- 4-- 2|-------- 2-------------- 2------|
D|---- 6------------------------ 2|-- 2---------------- 2----------|
A| 4-------------- 2--------------| 0---------- 0-- 0--------------|
E|--------------------------------|--------------------------------|
http://classicalguitartablature.blogspot.com/
E|---- 0--------------------------|--------------------------------|
B|-- 0----------------------------|--------------------------------|
G|-- 1----------------------------|--------------------------------|
D|-- 4----------------------------|--------------------------------|
A|--------------------------------|--------------------------------|
E| 0------------------------------|--------------------------------|
http://classicalguitartablature.blogspot.com/
0 com

Paparazzi (BASIC)

Lady Gaga's tune fingerstyle chord melody guitar BASIC arrangement played in the key of Am.

Paparazzi-Lady Gaga-BASIC ARRANGEMENT played in the key of Am.
http://classicalguitartablature.blogspot.com/
E|--------------------------------|--------------------------------|
B| 1---------- 1------------------| 1---------- 1------------------|
G| 2---------- 2------------------| 2---------- 2------------------|
D| 3---------- 3------------------| 3---------- 3------------------|
A| 0---------- 0---------------- 0| 0---------- 0------------------|
E|--------------------------------|--------------------------------|
http://classicalguitartablature.blogspot.com/
E|-------- 5----------------------|------ 5------------------------|
B|--------------------------------|--------------------------------|
G| 2-- 2------ 2------------------| 2-- 2------ 2------------------|
D| 2-- 2------ 2---------------- 2|---- 2------ 2------------------|
A| 0---- 0 0-- 0-------------- 0--| 0-- 0-- 0-- 0-------------- 0--|
E|--------------------------------|--------------------------------|
http://classicalguitartablature.blogspot.com/
http://classicalguitartablature.blogspot.com/
E| 0---- 0------------------------| 0-- 0--------------------------|
B| 1---- 1---------------------- 1|---- 1--------------------------|
G| 2---- 2---- 2------------ 2-- 2|------------ 2-------------- 2--|
D|------------ 2------------ 2----|------------ 2-------------- 2--|
A| 0---------- 0-------------- 0--| 0---------- 0-------------- 0--|
E|--------------------------------|--------------------------------|
http://classicalguitartablature.blogspot.com/
E| 0---- 0------------------------| 0-- 1-- 3-- 1------ 0----------|
B| 1---- 1------------------------| 1-- 1-- 1-- 1-------------- 1--|
G| 2---- 2---- 2-------------- 2--| 2-- 2-- 2-- 2---------- 2------|
D|------------ 2-------------- 2--|--------------------------------|
A| 0---------- 0-------------- 0--| 0-------------- 0--------------|
E|--------------------------------|--------------------------------|
http://classicalguitartablature.blogspot.com/
E|--------------------------------| 0------------------------------|
B| 0---- 1---------------- 1------| 1------ 1------ 0--------------|
G| 2---- 2---- 2-------------- 2--| 2------ 2---- 2------ 2--------|
D| 3---- 3---- 3------ 3----------|---- 3------ 3------ 3------ 3--|
A| 0---------- 0------------------| 0-------------- 0--------------|
E|--------------------------------|--------------------------------|
http://classicalguitartablature.blogspot.com/
E|--------------------------------|-------- 5-------- 5------------|
B| 0---- 1---------------- 1------|---------------- 5--------------|
G| 2---- 2---- 2-------------- 2--| 2-- 2------ 2---------- 2------|
D| 3---- 3---- 3------ 3----------| 3-- 3--------------------------|
A| 0---------- 0------------------| 0-------------- 0---------- 0--|
E|--------------------------------|--------------------------------|
http://classicalguitartablature.blogspot.com/
E| 0---- 0------------------------| 0-- 0--------------------------|
B| 1---- 1---------------------- 1|---- 1--------------------------|
G| 2---- 2---- 2------------ 2-- 2|------------ 2-------------- 2--|
D|------------ 2------------ 2----|------------ 2-------------- 2--|
A| 0---------- 0-------------- 0--| 0---------- 0-------------- 0--|
E|--------------------------------|--------------------------------|
http://classicalguitartablature.blogspot.com/
E| 0---- 0------------------------| 0-- 1-- 3-- 1------ 0----------|
B| 1---- 1------------------------| 1-- 1-- 1-- 1-------------- 1--|
G| 2---- 2---- 2-------------- 2--| 2-- 2-- 2-- 2---------- 2------|
D|------------ 2-------------- 2--|--------------------------------|
A| 0---------- 0-------------- 0--| 0-------------- 0--------------|
E|--------------------------------|--------------------------------|
http://classicalguitartablature.blogspot.com/
E|--------------------------------|--------------------------------|
B| 0---- 1---------------- 1------| 3------ 1------ 0--------------|
G| 2---- 2---- 2-------------- 2--| 2------ 2------ 2---- 2------ 4|
D| 3---- 3---- 3------ 3----------|---- 3------ 3------ 3------ 3--|
A| 0---------- 0------------------| 0-------------- 0--------------|
E|--------------------------------|--------------------------------|
http://classicalguitartablature.blogspot.com/
E|--------------------------------|------------ 3------------------|
B|---------------------------- 5 5| 5-- 3-- 5-- 5-- 5--------------|
G|------ 5------------------------| 5-- 5-- 5------ 5--------------|
D| 7---- 7---- 7------ 7----------| 3-- 3-- 3------ 3--------------|
A| 5---------- 5------------------| 5------------------------------|
E|--------------------------------|--------------------------------|
http://classicalguitartablature.blogspot.com/
E| 1-- 1-- 1-- 1-- 1------ 3-- 0--|-------- 0------ 0------ 1-- 5--|
B| 1-- 1------ 1-- 1------ 1-- 1--|---- 3-- 3-- 3-- 3------ 3-- 6--|
G| 2-- 2-- 2------ 2------ 2-- 0--|---- 0-- 0-- 0-- 0------ 0------|
D|--------------------------------|---- 2--------------------------|
A|--------------------------------| 3---------- 3------------------|
E| 1---------- 1------------------|--------------------------------|
http://classicalguitartablature.blogspot.com/
E|--------------------------------|------------ 5------------------|
B|---- 6------------ 5------------| 3-- 5------ 3---- 6------------|
G|---- 7---------- 7--------------| 3-- 3-------------- 3----------|
D|---- 7--------------------------| 3-- 3-------------- 3----------|
A| 5---------- 5-- 5---------- 5--|--------------------------------|
E|--------------------------------| 6---------- 6-------------- 6--|
http://classicalguitartablature.blogspot.com/
E| 1-- 1-- 1-- 1-- 1------ 3-- 0--|-------- 0------ 0------ 1-- 5--|
B| 1-- 1------ 1-- 1------ 1-- 1--|---- 3-- 3-- 3-- 3------ 3-- 6--|
G| 2-- 2-- 2------ 2------ 2-- 0--|---- 0-- 0-- 0-- 0------ 0------|
D|--------------------------------|---- 2--------------------------|
A|--------------------------------| 3---------- 3------------------|
E| 1---------- 1------------------|--------------------------------|
http://classicalguitartablature.blogspot.com/
E|--------------------------------|------------ 5---------------- 8|
B|---- 6------------ 5------------| 3-- 5------ 3---- 6----------10|
G|---- 7---------- 7--------------| 3-- 3-------------- 3--------10|
D|---- 7--------------------------| 3-- 3-------------- 3----------|
A| 5---------- 5-- 5---------- 5--|--------------------------------|
E|--------------------------------| 6---------- 6-------------- 6--|
http://classicalguitartablature.blogspot.com/
E|---------------------------- 0--|--------------------------------|
B|--10--11------10-- 8-------- 1--|------------ 1-- 1-- 1-- 1-- 1--|
G|--10--10------10----10------ 0--|---- 0------ 0-- 0-- 0------ 0--|
D|--10----------10----10----------|---- 2---------- 2-- 2----------|
A| 8-------- 8--------------------| 3-------------- 3--------------|
E|--------------------------------|--------------------------------|
http://classicalguitartablature.blogspot.com/
E| 8------ 6------ 5--------------|--------------------------------|
B| 6---- 6-------- 6-- 8------ 3--|--------------------------------|
G| 5-------------- 5-- 5------ 3--|---- 3-------------- 3----------|
D|---- 7-------------- 7------ 3--|---- 3-------------- 3----------|
A| 5---------- 5------------------| 1---------- 1-- 1---------- 1--|
E|--------------------------------|--------------------------------|
http://classicalguitartablature.blogspot.com/
E| 1-- 1-- 1-- 1-- 1------ 3-- 0--|-------- 0------ 0------ 1-- 5--|
B| 1-- 1------ 1-- 1------ 1-- 1--|---- 3-- 3-- 3-- 3------ 3-- 6--|
G| 2-- 2-- 2------ 2------ 2-- 0--|---- 0-- 0-- 0-- 0------ 0------|
D|--------------------------------|---- 2--------------------------|
A|--------------------------------| 3---------- 3------------------|
E| 1---------- 1------------------|--------------------------------|
http://classicalguitartablature.blogspot.com/
E|--------------------------------|------------ 5------------------|
B|---- 6------------ 5------------| 3-- 5------ 3---- 6------------|
G|---- 7---------- 7--------------| 3-- 3-------------- 3----------|
D|---- 7--------------------------| 3-- 3-------------- 3----------|
A| 5---------- 5-- 5---------- 5--|--------------------------------|
E|--------------------------------| 6---------- 6-------------- 6--|
http://classicalguitartablature.blogspot.com/
E|-------- 5----------------------|------ 5------------------------|
B|--------------------------------|--------------------------------|
G| 2-- 2------ 2------------------| 2-- 2------ 2------------------|
D| 2-- 2------ 2---------------- 2|---- 2------ 2------------------|
A| 0---- 0 0-- 0-------------- 0--| 0-- 0-- 0-- 0-------------- 0--|
E|--------------------------------|--------------------------------|
http://classicalguitartablature.blogspot.com/
E|-------- 5----------------------|------ 5------------------------|
B|--------------------------------|--------------------------------|
G| 2-- 2------ 2------------------| 2-- 2------ 2---------------- 2|
D| 2-- 2------ 2---------------- 2|---- 2------ 2---------------- 2|
A| 0---- 0 0-- 0-------------- 0--| 0-- 0-- 0-- 0-------------- 0--|
E|--------------------------------|--------------------------------|
http://classicalguitartablature.blogspot.com/
E|--------------------------------|--------------------------------|
B|--------------------------------|--------------------------------|
G|--------------------------------|--------------------------------|
D|--------------------------------|--------------------------------|
A| 0------------------------------|--------------------------------|
E|--------------------------------|--------------------------------|
http://classicalguitartablature.blogspot.com/
0 com

I Saw Her Standing There (BASIC)

The Beatles' tune fingerstyle chord melody guitar BASIC arrangement played in the key of E.

I Saw Her Standing There-Beatles-BASIC ARRANGEMENT played in the key of E.
http://classicalguitartablature.blogspot.com/
E|--------------------------------|--------------------------------|
B|--------------------------------|--------------------------------|
G|--------------------------------|--------------------------------|
D|--------------------------------|--------------------------------|
A|---------------- 2------ 0------|---------------- 2------ 0------|
E| 0-- 0-- 4-- 0------ 0------ 4--| 0-- 0-- 4-- 0------ 0------ 4--|
http://classicalguitartablature.blogspot.com/
E|-------- 0-- 0-- 0-- 0----------| 0---------- 0------------------|
B|-------- 0-- 0-- 0-- 0----------| 0---------- 0------------------|
G|------------ 1-- 1-- 1----------| 1---------- 1------------------|
D|--------------------------------|--------------------------------|
A|---------------- 2------ 0------|---------------- 2------ 0------|
E| 0-- 0-- 4-- 0------ 0------ 4--| 0-- 0-- 4-- 0------ 0------ 4--|
http://classicalguitartablature.blogspot.com/
http://classicalguitartablature.blogspot.com/
E|-------- 0-- 0-- 0-- 0----------| 0---------- 0---------- 0------|
B|-------- 0-- 0-- 0-- 0----------| 0---------- 0------------------|
G|------------ 1-- 1-- 1----------| 1---------- 1------------------|
D|--------------------------------|--------------------------------|
A|---------------- 2------ 0------|---------------- 2------ 0------|
E| 0-- 0-- 4-- 0------ 0------ 4--| 0-- 0-- 4-- 0------ 0------ 4--|
http://classicalguitartablature.blogspot.com/
E|--------------------------------|--------------------------------|
B| 5-------------- 5-- 5------ 5--|---- 5------------------ 5------|
G| 7-------------- 7-- 7------ 7--|---- 7------------ 7------------|
D| 6-------------- 6-- 6------ 6--|---- 6---------- 6--------------|
A|--------------------------------|--------------------------------|
E| 0---------- 0-------------- 0--|------------ 0------------------|
http://classicalguitartablature.blogspot.com/
E|--------------------------------|--------------------------------|
B| 5---------- 5-- 5---------- 8--|---- 5------------------ 5------|
G| 6-- 6------ 6-- 6-- 7------ 7--|------------ 7---------- 7------|
D| 5-- 5------ 5-------------- 6--|-------- 6-------------- 6------|
A| 0---------- 0-- 0--------------|--------------------------------|
E|--------------------------------| 0-------------- 0--------------|
http://classicalguitartablature.blogspot.com/
E| 0------------------------------| 2-- 0---------------- 0--------|
B| 3-- 3------ 0-------------- 0--| 0-- 0------ 3------ 3------ 3--|
G| 1-- 1------ 1-------------- 1--| 1-- 1------ 1------ 1------ 2--|
D|---- 0------ 0------ 0------ 0--|------------ 0-------------- 1--|
A|--------------------------------|--------------------------------|
E| 0---------- 0-------------- 0--| 0---------- 0------------------|
http://classicalguitartablature.blogspot.com/
E|--------------------------------|--------------------------------|
B|---- 0---------------------- 0--|------------ 3-------------- 0--|
G|---- 2------ 2---------- 2------|-------- 4-------------- 2------|
D|-------- 1---------- 1----------|---- 2-------------- 1----------|
A| 2-------------- 0--------------|--------------------------------|
E|--------------------------------| 4-------------- 2--------------|
http://classicalguitartablature.blogspot.com/
E|--------------------------------|--------------------------------|
B| 0-------------- 2-- 4------ 5--|---------------- 7------ 8-- 7--|
G| 1-------------- 1-- 1------ 4--|--------------------------------|
D| 2-------------- 2---------- 6--|--------------------------------|
A|--------------------------------|--------------------------------|
E| 0-- 0-- 0-- 0-- 0-- 0-- 0-- 0--| 4-- 4-- 4-- 4---- 4 4-- 4-- 4--|
http://classicalguitartablature.blogspot.com/
E|----------------------------12--|--------------------------------|
B|---- 5--------------------------|--------------------------------|
G|---- 6--------------------------|-------- 9-------------- 9------|
D|---- 5--------------------------|-------- 8-------------- 8------|
A| 0-- 0-- 0-- 0-- 0-- 0-- 0-- 0--|--------------------------------|
E|--------------------------------| 8-- 8-- 8-- 8-- 8-- 8-- 8-- 8--|
http://classicalguitartablature.blogspot.com/
E| 0------------------------------|--------------------------------|
B| 0-------------- 3--------------| 0------------------------------|
G| 1-------------- 1--------------| 2------------------ 0----------|
D|---------------- 2--------------| 1---------------------- 4-- 2--|
A|--------------------------------| 2-- 2-- 2-- 2-- 2-- 2-- 2------|
E| 0-- 0-- 0---- 0-- 0 0-- 0-- 0--|--------------------------------|
http://classicalguitartablature.blogspot.com/
E|-------- 0-- 0-- 0-- 0----------| 0---------- 0---------- 0------|
B|-------- 0-- 0-- 0-- 0----------| 0---------- 0------------------|
G|------------ 1-- 1-- 1----------| 1---------- 1------------------|
D|--------------------------------|--------------------------------|
A|---------------- 2------ 0------|---------------- 2------ 0------|
E| 0-- 0-- 4-- 0------ 0------ 4--| 0-- 0-- 4-- 0------ 0------ 4--|
http://classicalguitartablature.blogspot.com/
E|--------------------------------|--------------------------------|
B| 5-------------- 5-- 5------ 5--|---- 5------------------ 5------|
G| 7-------------- 7-- 7------ 7--|---- 7------------ 7------------|
D| 6-------------- 6-- 6------ 6--|---- 6---------- 6--------------|
A|--------------------------------|--------------------------------|
E| 0---------- 0-------------- 0--|------------ 0------------------|
http://classicalguitartablature.blogspot.com/
E|--------------------------------|--------------------------------|
B| 5---------- 5-- 5---------- 8--|---- 5------------------ 5------|
G| 6-- 6------ 6-- 6-- 7------ 7--|------------ 7---------- 7------|
D| 5-- 5------ 5-------------- 6--|-------- 6-------------- 6------|
A| 0---------- 0-- 0--------------|--------------------------------|
E|--------------------------------| 0-------------- 0--------------|
http://classicalguitartablature.blogspot.com/
E| 0------------------------------| 2-- 0---------------- 0--------|
B| 3-- 3------ 0-------------- 0--| 0-- 0------ 3------ 3------ 3--|
G| 1-- 1------ 1-------------- 1--| 1-- 1------ 1------ 1------ 2--|
D|---- 0------ 0------ 0------ 0--|------------ 0-------------- 1--|
A|--------------------------------|--------------------------------|
E| 0---------- 0-------------- 0--| 0---------- 0------------------|
http://classicalguitartablature.blogspot.com/
E|--------------------------------|--------------------------------|
B|---- 0---------------------- 0--|------------ 3-------------- 0--|
G|---- 2------ 2---------- 2------|-------- 4-------------- 2------|
D|-------- 1---------- 1----------|---- 2-------------- 1----------|
A| 2-------------- 0--------------|--------------------------------|
E|--------------------------------| 4-------------- 2--------------|
http://classicalguitartablature.blogspot.com/
E|--------------------------------|--------------------------------|
B| 0-------------- 2-- 4------ 5--|---------------- 7------ 8-- 7--|
G| 1-------------- 1-- 1------ 4--|--------------------------------|
D| 2-------------- 2---------- 6--|--------------------------------|
A|--------------------------------|--------------------------------|
E| 0-- 0-- 0-- 0-- 0-- 0-- 0-- 0--| 4-- 4-- 4-- 4---- 4 4-- 4-- 4--|
http://classicalguitartablature.blogspot.com/
E|----------------------------12--|--------------------------------|
B|---- 5--------------------------|--------------------------------|
G|---- 6--------------------------|-------- 9-------------- 9------|
D|---- 5--------------------------|-------- 8-------------- 8------|
A| 0-- 0-- 0-- 0-- 0-- 0-- 0-- 0--|--------------------------------|
E|--------------------------------| 8-- 8-- 8-- 8-- 8-- 8-- 8-- 8--|
http://classicalguitartablature.blogspot.com/
E| 0------------------------------|--------------------------------|
B| 0-------------- 3--------------| 0------------------------------|
G| 1-------------- 1--------------| 2------------------ 0----------|
D|---------------- 2--------------| 1---------------------- 4-- 2--|
A|--------------------------------| 2-- 2-- 2-- 2-- 2-- 2-- 2------|
E| 0-- 0-- 0---- 0-- 0 0-- 0-- 0--|--------------------------------|
http://classicalguitartablature.blogspot.com/
E|-------- 0-- 0-- 0-- 0----------| 0---------- 0---------- 0------|
B|-------- 0-- 0-- 0-- 0----------| 0-------------- 2------ 2------|
G|------------ 1-- 1-- 1----------| 1-------------- 1--------------|
D|--------------------------------|--------------------------------|
A|---------------- 2------ 0------|--------------------------------|
E| 0-- 0-- 4-- 0------ 0------ 4--| 0---- 0 0-------- 4---- 4------|
http://classicalguitartablature.blogspot.com/
E| 3-------------- 2---------- 0--|---- 0------ 0---------- 0------|
B| 2-------------- 2---------- 2--|---- 2---------- 2------ 2------|
G| 0-------------- 0---------- 0--|---- 0------ 0-- 0------ 0------|
D|--------------------------------|---------------- 2--------------|
A| 0------ 0------ 0------ 0------| 0------ 0------ 0------ 0------|
E|--------------------------------|--------------------------------|
http://classicalguitartablature.blogspot.com/
E| 3-- 3------ 3-- 2-- 2------ 2--|--------------------------------|
B| 5-- 5------ 5-- 5-- 5------ 5--| 5-- 5------ 5-- 2------ 5------|
G| 2-- 2------ 2-- 2-- 2------ 2--| 2-- 2------ 2-- 2------ 2------|
D|--------------------------------|---- 2------ 2-- 2--------------|
A| 4------ 4------ 4------ 4------| 4------ 4------ 4------ 4------|
E|--------------------------------|--------------------------------|
http://classicalguitartablature.blogspot.com/
E|--------------------------------|--------------------------------|
B| 8-- 8------ 8-- 7-- 7------ 7--| 5-- 5------ 5-- 5------ 5-- 7--|
G| 6-- 6------ 6-- 6-- 6------ 6--| 6-- 6------ 6-- 6------ 6-- 8--|
D| 5-- 5------ 5-- 5-- 5------ 5--| 5-- 5------ 5-- 5------ 5-- 7--|
A|--------------------------------|--------------------------------|
E| 0------ 0------ 0------ 0------| 0------ 0------ 0------ 0------|
http://classicalguitartablature.blogspot.com/
E|---- 7--------------------------|-------------------- 7------ 9--|
B|--------------------------------|---------------------------- 8--|
G|------------ 8------------------|------------ 8-------------- 9--|
D|-------------------- 7------ 7--|---- 7--------------------------|
A|--------------------------------|--------------------------------|
E| 7------ 7------ 7------ 7------| 7------ 7------ 7------ 7------|
http://classicalguitartablature.blogspot.com/
E|------------ 9-------------- 9--|------------ 9---- 0-- 0--------|
B|-------------------- 8------ 8--|--------------------------------|
G|---- 9------ 9------ 9------ 9--|---- 9--------------------------|
D|---- 7---------------- 7--------|---- 7--------------------------|
A| 0------ 0------ 0------ 0------| 0------ 0------ 0------ 0------|
E|--------------------------------|--------------------------------|
http://classicalguitartablature.blogspot.com/
E|--------------------------------|--------------------------------|
B| 5-------------- 5-- 5------ 5--|---- 5------------------ 5------|
G| 7-------------- 7-- 7------ 7--|---- 7------------ 7------------|
D| 6-------------- 6-- 6------ 6--|---- 6---------- 6--------------|
A|--------------------------------|--------------------------------|
E| 0---------- 0-------------- 0--|------------ 0------------------|
http://classicalguitartablature.blogspot.com/
E|--------------------------------|--------------------------------|
B| 5---------- 5-- 5---------- 8--|---- 5------------------ 5------|
G| 6-- 6------ 6-- 6-- 7------ 7--|------------ 7---------- 7------|
D| 5-- 5------ 5-------------- 6--|-------- 6-------------- 6------|
A| 0---------- 0-- 0--------------|--------------------------------|
E|--------------------------------| 0-------------- 0--------------|
http://classicalguitartablature.blogspot.com/
E| 0------------------------------| 2-- 0---------------- 0--------|
B| 3-- 3------ 0-------------- 0--| 0-- 0------ 3------ 3------ 3--|
G| 1-- 1------ 1-------------- 1--| 1-- 1------ 1------ 1------ 2--|
D|---- 0------ 0------ 0------ 0--|------------ 0-------------- 1--|
A|--------------------------------|--------------------------------|
E| 0---------- 0-------------- 0--| 0---------- 0------------------|
http://classicalguitartablature.blogspot.com/
E|--------------------------------|--------------------------------|
B|---- 0---------------------- 0--|------------ 3-------------- 0--|
G|---- 2------ 2---------- 2------|-------- 4-------------- 2------|
D|-------- 1---------- 1----------|---- 2-------------- 1----------|
A| 2-------------- 0--------------|--------------------------------|
E|--------------------------------| 4-------------- 2--------------|
http://classicalguitartablature.blogspot.com/
E|--------------------------------|--------------------------------|
B| 0-------------- 2-- 4------ 5--|---------------- 7------ 8-- 7--|
G| 1-------------- 1-- 1------ 4--|--------------------------------|
D| 2-------------- 2---------- 6--|--------------------------------|
A|--------------------------------|--------------------------------|
E| 0-- 0-- 0-- 0-- 0-- 0-- 0-- 0--| 4-- 4-- 4-- 4---- 4 4-- 4-- 4--|
http://classicalguitartablature.blogspot.com/
E|----------------------------12--|--------------------------------|
B|---- 5--------------------------|--------------------------------|
G|---- 6--------------------------|-------- 9-------------- 9------|
D|---- 5--------------------------|-------- 8-------------- 8------|
A| 0-- 0-- 0-- 0-- 0-- 0-- 0-- 0--|--------------------------------|
E|--------------------------------| 8-- 8-- 8-- 8-- 8-- 8-- 8-- 8--|
http://classicalguitartablature.blogspot.com/
E| 0------------------------------|--------------------------------|
B| 0-------------- 3--------------| 0------------------------------|
G| 1-------------- 1--------------| 2------------------ 0----------|
D|---------------- 2--------------| 1---------------------- 4-- 2--|
A|--------------------------------| 2-- 2-- 2-- 2-- 2-- 2-- 2------|
E| 0-- 0-- 0---- 0-- 0 0-- 0-- 0--|--------------------------------|
http://classicalguitartablature.blogspot.com/
E|-------- 0-- 0-- 0-- 0----------| 0---------- 0---------- 0------|
B|-------- 0-- 0-- 0-- 0----------| 0---------- 0------------------|
G|------------ 1-- 1-- 1----------| 1---------- 1------------------|
D|--------------------------------|--------------------------------|
A|---------------- 2------ 0------|---------------- 2------ 0------|
E| 0-- 0-- 4-- 0------ 0------ 4--| 0-- 0-- 4-- 0------ 0------ 4--|
http://classicalguitartablature.blogspot.com/
E| 0------------------------------|--------------------------------|
B| 0-------------- 3--------------| 0------------------------------|
G| 1-------------- 1--------------| 2------------------ 0----------|
D|---------------- 2--------------| 1---------------------- 4-- 2--|
A|--------------------------------| 2-- 2-- 2-- 2-- 2-- 2-- 2------|
E| 0-- 0-- 0---- 0-- 0 0-- 0-- 0--|--------------------------------|
http://classicalguitartablature.blogspot.com/
E|-------- 0-- 0-- 0-- 0----------| 0---------- 0---------- 0------|
B|-------- 0-- 0-- 0-- 0----------| 0---------- 0------------------|
G|------------ 1-- 1-- 1----------| 1---------- 1------------------|
D|--------------------------------|--------------------------------|
A|---------------- 2------ 0------|---------------- 2------ 0------|
E| 0-- 0-- 4-- 0------ 0------ 4--| 0-- 0-- 4-- 0------ 0------ 4--|
http://classicalguitartablature.blogspot.com/
E| 0------------------------------|--------------------------------|
B| 0-------------- 3--------------| 0------------------------------|
G| 1-------------- 1--------------| 2------------------ 0----------|
D|---------------- 2--------------| 1---------------------- 4-- 2--|
A|--------------------------------| 2-- 2-- 2-- 2-- 2-- 2-- 2------|
E| 0-- 0-- 0---- 0-- 0 0-- 0-- 0--|--------------------------------|
http://classicalguitartablature.blogspot.com/
E|--------------------------------|--------------------------------|
B|-------- 2---------- 2------ 2--|--------------------------------|
G|-------- 0---------- 0------ 0--|------------------------------ 1|
D|-------- 2---------- 2------ 2--|---------------------------- 0--|
A| 0-- 0-- 0-- 0-- 0-- 0-- 0-- 0--|-------- 2------------------ 2--|
E|--------------------------------| 0-- 4------ 0------------ 0----|
http://classicalguitartablature.blogspot.com/
E|-- 0----------------------------|--------------------------------|
B| 0------------------------------|--------------------------------|
G|--------------------------------|--------------------------------|
D|--------------------------------|--------------------------------|
A|--------------------------------|--------------------------------|
E|--------------------------------|--------------------------------|
http://classicalguitartablature.blogspot.com/
0 com

Never Gonna Give You Up (BASIC)

Rick Astley's tune fingerstyle chord melody guitar BASIC arrangement played in the key of Am.
Never Gonna Give You Up-Rick Astley-BASIC ARRANGEMENT played in the key of Am
http://classicalguitartablature.blogspot.com/
E|--------------------------------|--------------------------------|
B| 6------------------ 6----------| 1------------------------------|
G| 5------------------ 5----------| 0------------------------------|
D| 7------------------ 7----------| 2------------------------------|
A| 5-- 5 5-- 8 7------ 5----------| 0---- 0-- 3 2------------------|
E|---------------- 8---------- 0 3|---- 3--------------------------|
http://classicalguitartablature.blogspot.com/
E|--------------------------------|--------------------------------|
B| 6------------------ 6----------| 1------------------------------|
G| 5------------------ 5----------| 0---------------------------- 5|
D| 7------------------ 7----------| 2---------------------------- 3|
A| 5-- 5 5-- 8 7------ 5----------| 0---- 0-- 3 2------------------|
E|---------------- 8---------- 0 3|---- 3--------------------------|
http://classicalguitartablature.blogspot.com/
http://classicalguitartablature.blogspot.com/
E|--------------------------------|------------ 0-------- 3 1 0----|
B|---- 3---- 3--------------------| 3---- 3---- 1------------------|
G|---------- 0------------ 0------| 0---- 0---- 0------------------|
D|---- 3---- 0------ 0-------- 0--|------ 0------------ 2----------|
A| 5------------------------------|------------ 0------------------|
E|------------ 3------------------| 0------------------------------|
http://classicalguitartablature.blogspot.com/
E|--------------------------------|--------------------------------|
B|------------ 3------------------| 2------------------------ 1----|
G| 5---------- 0---------- 0------| 0------------------ 0-- 2-- 2--|
D|---- 3------ 0------ 0------ 0--| 0---- 0---- 2------------------|
A| 5------------------------------|------------ 0------------------|
E|------------ 3------------------| 0------------------------------|
http://classicalguitartablature.blogspot.com/
E|--------------------------------|------------ 0---------- 3 1 0--|
B|------------ 3------------------| 3---------- 1------------ 1----|
G| 5---------- 0---------- 0------| 0---------- 0------------------|
D|------ 3---- 0------ 0------ 0--|------ 0------------ 2----------|
A| 5------------------------------|------------ 0------------------|
E|------------ 3------------------| 0------------------------------|
http://classicalguitartablature.blogspot.com/
E|--------------------------------|--------------------------------|
B|------------ 3------------------| 2------------------------ 1----|
G| 5---------- 0---------- 0------| 0------------------ 0-- 2-- 2--|
D|---- 3------ 0------ 0------ 0--| 0---- 0---- 2------------------|
A| 5------------------------------|------------ 0------------------|
E|------------ 3------------------| 0------------------------------|
http://classicalguitartablature.blogspot.com/
E|--------------------------------|--------------------------------|
B|------------ 0-- 1-- 1-- 3-- 0--|--------------------------------|
G|-------- 2------ 2-- 2----------|-- 2 0------ 0---------- 0------|
D|------ 3-------- 3-- 3----------|-------- 0------------ 0---- 0--|
A| 0-------------- 0--------------| 0-------------- 0--------------|
E|--------------------------------|--------------------------------|
http://classicalguitartablature.blogspot.com/
E|--------------------------------| 3---- 3------------------------|
B|------------ 0 1----------------| 6---- 6---- 3------------------|
G|---- 2-- 2------ 2-- 2-- 0------| 5---- 5---- 0---------- 0------|
D|---- 3-- 3----------------------|------------ 0------ 0------ 0--|
A| 0------------ 0----------------| 5------------------------------|
E|--------------------------------|------------ 3------------------|
http://classicalguitartablature.blogspot.com/
E|--------------------------------|--------------------------------|
B|------------ 0-- 1------ 1-- 3--|---- 0--------------------------|
G|---- 2-- 2---------- 2----------|-------- 2-- 0---------- 0------|
D|---- 3-- 3----------------------|-------------------- 0------ 0--|
A| 0-------------- 0--------------| 0-------------- 0--------------|
E|--------------------------------|--------------------------------|
http://classicalguitartablature.blogspot.com/
E|--------------------------------|--------------------------------|
B|------------ 0 1-------------- 3|---- 3 3---- 5 3------------ 3--|
G|---- 2-- 2---------- 2-- 0------| 4-- 4 4---- 4 4-------- 4------|
D|---- 3-- 3----------------------| 5-- 5 5---- 5 5---- 5----------|
A| 0-------------- 0--------------| 0-------------- 0--------------|
E|--------------------------------|--------------------------------|
http://classicalguitartablature.blogspot.com/
E|------------------------ 0------|--------------------------------|
B| 1-- 1------ 1------ 3-- 1-- 1--| 3-- 3-- 3 5-- 3----------------|
G| 2-- 2------ 2------ 2-- 2-- 2--| 4-- 4-- 4 4-- 4-- 4-------- 4--|
D| 3-- 3------ 3------ 3------ 3--| 5-- 5-- 5-- 5-------- 5--------|
A| 0---------- 0------------------| 0------------ 0----------------|
E|--------------------------------|--------------------------------|
http://classicalguitartablature.blogspot.com/
E|--------------------------------|--------------------------------|
B|-------------------- 0-- 1------|---- 3 5---- 3------------ 1-- 5|
G|------ 2---- 2-------------- 2--|---- 4 4---- 4-------- 0 2-- 2 5|
D|------ 3---- 3------------------|---- 5 5---- 5------ 0-------- 3|
A| 0---------- 0---------------- 0|---------------- 0------------ 5|
E|--------------------------------|--------------------------------|
http://classicalguitartablature.blogspot.com/
E|--------------------------------|--------------------------------|
B|------ 5---- 3-------------- 1--| 3---- 3---- 1-- 0-------- 1----|
G|------ 5---- 0---------- 0 2-- 2| 0---- 0---- 2------ 2-- 0---- 2|
D|------ 3---- 0------ 0----------| 0---- 0---- 2------------------|
A|--------------------------------|------------ 0------------------|
E|------------ 3------------------| 0------------------------------|
http://classicalguitartablature.blogspot.com/
E|--------------------------------|--------------------------------|
B|-------- 3-- 0------------------| 3------ 1---------------- 1-- 5|
G| 5-------------- 2 0-------- 0--| 0-------------------- 0 2---- 2|
D|------ 3---------------- 0------|---- 0------ 0------ 2----------|
A| 5------------------------------|---------------- 0--------------|
E|------------ 3------------------| 0------------------------------|
http://classicalguitartablature.blogspot.com/
E|------------------------------ 3|--------------------------------|
B|------ 5---- 3------------ 1-- 0|------ 0---- 1---- 0-------- 1--|
G|------ 5---- 0-------- 0 2---- 2|------ 0---- 0------ 2-- 0 2-- 2|
D| 3---- 3---- 0------ 0----------|------ 0---- 2------------------|
A| 5------------------------------|------------ 0------------------|
E|------------ 3------------------| 0------------------------------|
http://classicalguitartablature.blogspot.com/
E|--------------------------------|--------------------------------|
B|-------- 3-- 0------------------| 3------ 1-------------- 1------|
G| 5-------------- 2 0-------- 0--| 4------ 2---------- 2------ 2--|
D|------ 3---------------- 0------| 5------ 2-------- 2------------|
A| 5------------------------------|-------------- 0----------------|
E|------------ 3------------------| 0------------------------------|
http://classicalguitartablature.blogspot.com/
E|--------------------------------|--------------------------------|
B| 6------------------ 6----------| 1------------------------------|
G| 5------------------ 5----------| 0------------------------------|
D| 7------------------ 7----------| 2------------------------------|
A| 5-- 5 5-- 8 7------ 5----------| 0---- 0-- 3 2------------------|
E|---------------- 8---------- 0 3|---- 3--------------------------|
http://classicalguitartablature.blogspot.com/
E|--------------------------------|--------------------------------|
B| 6------------------ 6----------| 1------------------------------|
G| 5------------------ 5----------| 0------------------------------|
D| 7------------------ 7----------| 2------------------------------|
A| 5-- 5 5-- 8 7------ 5----------| 0---- 0-- 3 2------------------|
E|---------------- 8---------- 0 3|---- 3--------------------------|
http://classicalguitartablature.blogspot.com/
E|--------------------------------|--------------------------------|
B|---------- 5---------- 5------ 5|---- 5---- 3--------------------|
G|------ 5---------- 5---------- 5|---- 5---- 0--------------------|
D|---- 5-- 7---- 5-- 7 7-------- 5|---------- 0--------------------|
A| 5------------------------------| 0---- 0 3-- 2------------------|
E|---------------------------- 0 3|---- 3--------------------------|
http://classicalguitartablature.blogspot.com/
E|--------------------------------|--------------------------------|
B|---------- 5---------- 5------ 5|---- 5---- 3--------------------|
G|------ 5---------- 5---------- 5|---- 5---- 0--------------------|
D|---- 5-- 7---- 5-- 7 7-------- 5|---------- 0--------------------|
A| 5------------------------------| 0---- 0 3-- 2------------------|
E|---------------------------- 0 3|---- 3--------------------------|
http://classicalguitartablature.blogspot.com/
0 com

In The Summertime (BASIC)

Mungo Jerry's tune fingerstyle chord melody guitar BASIC arrangement played in the key of G.

In The Summertime-Mungo Jerry-BASIC ARRANGEMENT played in the key of G.
http://classicalguitartablature.blogspot.com/
E|--------------------------------|------------------------------ 0|
B| 0---- 0------ 0-- 0---- 0------| 0---- 0------ 0-- 0---- 0-- 3--|
G| 0---- 0------ 0-------- 0------| 0---- 0------ 0-------- 0------|
D| 0------ 0---- 0-------- 0------| 0------ 0------ 0------ 0------|
A|--------------------------------|--------------------------------|
E| 3-- 3 3-------- 3 3-- 3 3------| 3---- 3-------- 3 3-- 3 3------|
http://classicalguitartablature.blogspot.com/
E| 3 3-- 3-------- 0---------- 0--| 3 3-- 3-------- 0--------------|
B| 3 3-- 3---- 5 3-- 3-- 0---- 3--| 3 3-- 3---- 5 3-- 3-- 0------ 0|
G| 4 4-- 4------------ 3-- 0------| 4 4-- 4------------ 3 0 0-- 2--|
D|--------------------------------|--------------------------------|
A|-------- 5-------------- 5------|-------- 5-------------- 5------|
E| 3-------------- 3--------------| 3-------------- 3--------------|
http://classicalguitartablature.blogspot.com/
http://classicalguitartablature.blogspot.com/
E|--------------------------------|--------------------------------|
B|------------ 0------------------|---------------------------- 0--|
G| 2 0-------- 2-- 2 0-- 3 2 0-- 2| 0------ 0------ 0------ 0 2----|
D|------ 2------------ 2------ 2--| 0------ 0------ 0------ 0------|
A| 3-------------- 3--------------|--------------------------------|
E|-------- 3-------------- 3------| 3---- 3 3------ 3 3-- 3 3------|
http://classicalguitartablature.blogspot.com/
E|--------------------------------|------------------------------ 0|
B| 3 3-- 3-- 0-- 0----------------|---------------------------- 3--|
G| 2 2-- 2-- 2---- 2 0-- 3 2 0-- 2| 0------ 0------ 0------ 0------|
D| 4 4-- 4------------ 2------ 2--| 0------ 0------ 0------ 0------|
A| 5------ 0------ 3--------------|--------------------------------|
E|------------------------ 3------| 3---- 3 3------ 3 3-- 3 3------|
http://classicalguitartablature.blogspot.com/
E| 3 3-- 3------------------------| 3 3-- 3------------------------|
B| 3 3-- 3---- 5 3 5 3-- 3---- 3 5| 3 3-- 3---- 5 3 5 3-- 3------ 0|
G| 4 4-- 4-- 4---- 4 4------------| 4 4-- 4-- 4---- 4---------- 2--|
D|---------------- 5 5------------|---------------- 5--------------|
A|-------- 5-------------- 5------|-------- 5-------------- 5------|
E| 3-------------- 3--------------| 3-------------- 3--------------|
http://classicalguitartablature.blogspot.com/
E|--------------------------------|--------------------------------|
B|------------ 0------------------|---------------------------- 0--|
G| 2 0-------- 2-- 2 0-- 3 2 0-- 2| 0------ 0------ 0------ 0 2----|
D|------ 2------------ 2------ 2--| 0------ 0------ 0------ 0------|
A| 3-------------- 3--------------|--------------------------------|
E|-------- 3-------------- 3------| 3---- 3 3------ 3 3-- 3 3------|
http://classicalguitartablature.blogspot.com/
E|--------------------------------|------------------------------ 0|
B| 3 3-- 3-- 0-- 0----------------|---------------------------- 3--|
G| 2 2-- 2-- 2---- 2 0-- 3 2 0-- 2| 0------ 0------ 0------ 0------|
D| 4 4-- 4------------ 2------ 2--| 0------ 0------ 0------ 0------|
A| 5------ 0------ 3--------------|--------------------------------|
E|------------------------ 3------| 3---- 3 3------ 3 3-- 3 3------|
http://classicalguitartablature.blogspot.com/
E| 3 3-- 3------------------------| 3 3-- 3------------------------|
B| 3 3-- 3---- 5 3 5 3-- 3---- 3 5| 3 3-- 3---- 5 3 5 3-- 3------ 0|
G| 4 4-- 4-- 4---- 4 4------------| 4 4-- 4-- 4---- 4---------- 2--|
D|---------------- 5 5------------|---------------- 5--------------|
A|-------- 5-------------- 5------|-------- 5-------------- 5------|
E| 3-------------- 3--------------| 3-------------- 3--------------|
http://classicalguitartablature.blogspot.com/
E|--------------------------------|--------------------------------|
B|------------ 0------------------|---------------------------- 0--|
G| 2 0-------- 2-- 2 0-- 3 2 0-- 2| 0------ 0------ 0------ 0 2----|
D|------ 2------------ 2------ 2--| 0------ 0------ 0------ 0------|
A| 3-------------- 3--------------|--------------------------------|
E|-------- 3-------------- 3------| 3---- 3 3------ 3 3-- 3 3------|
http://classicalguitartablature.blogspot.com/
E|--------------------------------|--------------------------------|
B| 3 3-- 3-- 0-- 0----------------|---------------------------- 0--|
G| 2 2-- 2-- 2---- 2 0-- 3 2 0-- 2| 0------ 0------ 0------ 0 2----|
D| 4 4-- 4------------ 2------ 2--| 0------ 0------ 0------ 0------|
A| 5------ 0------ 3--------------|--------------------------------|
E|------------------------ 3------| 3---- 3 3------ 3 3-- 3 3------|
http://classicalguitartablature.blogspot.com/
E|--------------------------------|--------------------------------|
B| 3 3-- 3-- 0-- 0----------------| 0---- 0------ 0-- 0---- 0------|
G| 2 2-- 2-- 2---- 2 0-- 3 2 0-- 2| 0---- 0------ 0-------- 0------|
D| 4 4-- 4------------ 2------ 2--| 0------ 0---- 0-------- 0------|
A| 5------ 0------ 3--------------|--------------------------------|
E|------------------------ 3------| 3-- 3 3-------- 3 3-- 3 3------|
http://classicalguitartablature.blogspot.com/
E|------------------------------ 0| 3 3-- 3-------- 0---------- 0--|
B| 0---- 0------ 0-- 0---- 0-- 3--| 3 3-- 3---- 5 3-- 3-- 0---- 3--|
G| 0---- 0------ 0-------- 0------| 4 4-- 4------------ 3-- 0------|
D| 0------ 0------ 0------ 0------|--------------------------------|
A|--------------------------------|-------- 5-------------- 5------|
E| 3---- 3-------- 3 3-- 3 3------| 3-------------- 3--------------|
http://classicalguitartablature.blogspot.com/
E| 3 3-- 3-------- 0---------- 0--| 3 3-- 3-------- 0--------------|
B| 3 3-- 3---- 5 3-- 3-- 0---- 3--| 3 3-- 3---- 5 3-- 3-- 0--------|
G| 4 4-- 4------------ 3-- 0------| 4 4-- 4------------ 3 0 0------|
D|--------------------------------|------------------------ 0------|
A|-------- 5-------------- 5------|-------- 5---------- 5----------|
E| 3-------------- 3--------------| 3-------------- 3------ 3------|
http://classicalguitartablature.blogspot.com/
E|--------------------------------|--------------------------------|
B|--------------------------------|--------------------------------|
G|--------------------------------|--------------------------------|
D|--------------------------------|--------------------------------|
A|--------------------------------|--------------------------------|
E|--------------------------------|--------------------------------|
http://classicalguitartablature.blogspot.com/
0 com

Give Me Hope Joanna (BASIC)

Eddy Grant's tune fingerstyle chord melody guitar BASIC arrangement played in the key of A.

Give Me Hope Joanna-Eddy Grant-BASIC ARRANGEMENT played in the key of A.
http://classicalguitartablature.blogspot.com/
E|------------------------ 5-- 5--| 5-------- 5---- 5 5-- 7---- 7--|
B|------------------------ 5-- 5--| 5---------- 5-- 5 5-- 7---- 7--|
G|--------------------------------| 6---------- 6-- 6 6-- 6---- 6--|
D|--------------------------------|--------------------------------|
A|--------------------------------| 0---------- 0------------------|
E|--------------------------------|--------------------------------|
http://classicalguitartablature.blogspot.com/
E| 7---------------- 7-- 7-- 7----| 5-------- 5---- 5 5-- 7---- 7--|
B| 7---------------- 7-- 7-- 7----| 5---------- 5-- 5 5-- 7---- 7--|
G| 7---------------- 7-- 7-- 7----| 6---------- 6-- 6 6-- 6---- 6--|
D|---------- 7-- 7----------------|--------------------------------|
A| 5-------- 5--------------------| 0---------- 0------------------|
E|--------------------------------|--------------------------------|
http://classicalguitartablature.blogspot.com/
http://classicalguitartablature.blogspot.com/
E| 7------------------ 7---- 7 7--| 5-------- 5---- 5 5-- 7---- 7--|
B| 7------------------ 7-- 7-- 7--| 5---------- 5-- 5 5-- 7---- 7--|
G| 7------------------ 7-- 7-- 7--| 6---------- 6-- 6 6-- 6---- 6--|
D|---- 7---------- 7--------------|--------------------------------|
A|--------------------------------| 0---------- 0------------------|
E| 0---------- 0------------------|--------------------------------|
http://classicalguitartablature.blogspot.com/
E| 7---------------- 7-- 7-- 7-- 5|---------- 5---- 4-- 4-- 5-- 5--|
B| 7---------------- 7-- 7-- 7----| 5-------- 5---- 3-- 3-- 5-- 5--|
G| 7---------------- 7-- 7-- 7----| 6-- 6---- 6---- 4-- 4----------|
D|---------- 7-- 7----------------|--------------------------------|
A| 5-------- 5--------------------| 0---------- 0------------------|
E|--------------------------------|---------------- 0--------------|
http://classicalguitartablature.blogspot.com/
E| 5------------------------------|--------------------------------|
B| 5------------------ 3-- 3-- 3--| 2---------- 0------------------|
G| 2------------------------------| 2-------------- 2 2---- 1------|
D|---- 2---------- 2--------------|---- 2---------------------- 4--|
A| 0---------- 0------------------| 0---------- 0------------------|
E|--------------------------------|--------------------------------|
http://classicalguitartablature.blogspot.com/
E|--------------------------------|--------------------------------|
B|-------------------- 3-- 3-- 3--| 2------ 2------ 0-- 2------ 0--|
G|---- 2-------------- 2-- 2-- 2--| 2------ 2-- 2-------------- 1--|
D|-------------------- 4-- 4-- 4--|---- 2------ 2-------------- 2--|
A| 5---------- 5-- 5--------------| 0---------- 0------------------|
E|--------------------------------|--------------------------------|
http://classicalguitartablature.blogspot.com/
E|--------------------------------|--------------------------------|
B|------------------ 3-- 3-- 3----| 2------ 2-- 0------------------|
G|---- 1-------------- 1-- 1-- 1--| 2------ 2------ 2-- 1----------|
D|---- 2---------- 2------ 2-- 2--|---- 2---------------------- 4--|
A|--------------------------------| 0-------------- 0--------------|
E| 0-------- 0--------------------|--------------------------------|
http://classicalguitartablature.blogspot.com/
E|--------------------------------|--------------------------------|
B|------------ 3------ 3-- 3-- 3--| 2-- 2-- 2------ 0-- 0----------|
G|---- 2------ 2------------------| 2-- 2-- 2-- 2-- 1-- 1------ 2--|
D|---- 4---- 4---- 4--------------| 2-- 2-- 2------ 2-- 2----------|
A| 5---------- 5------------------| 0------------------------------|
E|--------------------------------|---------------- 0--------------|
http://classicalguitartablature.blogspot.com/
E|--------------------------------| 0------------------------------|
B|-------- 5-------------- 3-- 3--| 2------------------------------|
G|-------- 2-------------- 2-- 2--| 2---------- 2-- 2-- 2-- 2-- 2--|
D|---- 2------ 2------ 2----------|---- 2------ 2-- 2-- 2-- 2-- 2--|
A| 0-------------- 0--------------| 0---------- 0------------------|
E|--------------------------------|--------------------------------|
http://classicalguitartablature.blogspot.com/
E|---- 2--------------------------| 0------------------------------|
B|---- 3------------------ 3-- 3--| 2---------------------- 2-- 2--|
G|---- 2------ 2-- 2-- 2----------| 2---------- 2-- 2-- 2----------|
D|---------- 4---- 4-- 4----------|---- 2------ 2-- 2-- 2----------|
A| 5---------- 5------------------| 0---------- 0------------------|
E|--------------------------------|--------------------------------|
http://classicalguitartablature.blogspot.com/
E|--------------------------------| 0------------------------------|
B| 0-- 2------ 0---------- 3-- 3--| 2------------------------------|
G| 1-- 1------ 1------ 1----------| 2---------- 2-- 2-- 2-- 2-- 2--|
D| 2-- 2------ 2-- 2--------------|---- 2------ 2-- 2-- 2-- 2-- 2--|
A|--------------------------------| 0---------- 0------------------|
E| 0---------- 0------------------|--------------------------------|
http://classicalguitartablature.blogspot.com/
E|---- 2--------------------------|-------------------- 0----------|
B|---- 3------------------ 3-- 3--| 2-- 2-- 2------ 0--------------|
G|---- 2------ 2-- 2-- 2----------| 2-- 2-- 2-- 2-- 1---------- 2--|
D|---------- 4---- 4-- 4----------| 2-- 2-- 2------ 2--------------|
A| 5---------- 5------------------| 0------------------------------|
E|--------------------------------|---------------- 0--------------|
http://classicalguitartablature.blogspot.com/
E|--------------------------------| 0------------------------------|
B|-------- 5-------------- 3-- 3--| 2------------------------------|
G|-------- 2-------------- 2-- 2--| 2---------- 2-- 2-- 2-- 2-- 2--|
D|---- 2------ 2------ 2----------|---- 2------ 2-- 2-- 2-- 2-- 2--|
A| 0-------------- 0--------------| 0---------- 0------------------|
E|--------------------------------|--------------------------------|
http://classicalguitartablature.blogspot.com/
E|---- 2--------------------------| 0------------------------------|
B|---- 3------------------ 3-- 3--| 2---------------------- 2-- 2--|
G|---- 2------ 2-- 2-- 2----------| 2---------- 2-- 2-- 2----------|
D|---------- 4---- 4-- 4----------|---- 2------ 2-- 2-- 2----------|
A| 5---------- 5------------------| 0---------- 0------------------|
E|--------------------------------|--------------------------------|
http://classicalguitartablature.blogspot.com/
E|--------------------------------| 0------------------------------|
B| 0-- 2------ 0---------- 3-- 3--| 2------------------------------|
G| 1-- 1------ 1------ 1----------| 2---------- 2-- 2-- 2-- 2-- 2--|
D| 2-- 2------ 2-- 2--------------|---- 2------ 2-- 2-- 2-- 2-- 2--|
A|--------------------------------| 0---------- 0------------------|
E| 0---------- 0------------------|--------------------------------|
http://classicalguitartablature.blogspot.com/
E|---- 2--------------------------|-------------------- 0----------|
B|---- 3------------------ 3-- 3--| 2-- 2-- 2------ 0--------------|
G|---- 2------ 2-- 2-- 2----------| 2-- 2-- 2-- 2-- 1---------- 2--|
D|---------- 4---- 4-- 4----------| 2-- 2-- 2------ 2--------------|
A| 5---------- 5------------------| 0------------------------------|
E|--------------------------------|---------------- 0--------------|
http://classicalguitartablature.blogspot.com/
E|--------------------------------|--------------------------------|
B|-------- 5-------------- 3-- 3--| 5------------------------------|
G|-------- 2-------------- 2-- 2--| 2---------- 2-- 2-- 2----------|
D|---- 2------ 2------ 2----------| 2---------- 2-- 2-- 2----------|
A| 0-------------- 0--------------| 0---------- 0-- 0-- 0----------|
E|--------------------------------|--------------------------------|
http://classicalguitartablature.blogspot.com/
E|--------------------------------|--------------------------------|
B|--------------------------------|--------------------------------|
G|--------------------------------|--------------------------------|
D|--------------------------------|--------------------------------|
A|--------------------------------|--------------------------------|
E|--------------------------------|--------------------------------|
http://classicalguitartablature.blogspot.com/
0 com

Wouldn't It Be Nice (BASIC)

The Beach Boys' tune fingerstyle chord melody guitar BASIC arrangement played in the key of E.

Wouldn´t it be nice - The Beach Boys- BASIC ARRANGEMENT played in the key of E.
http://classicalguitartablature.blogspot.com/
E| 4------ 4----------------------| 6------ 4----------------------|
B| 4---------- 4-- 1-- 2-- 4-- 1--|------------ 4------ 4-- 6------|
G| 5-- 5---------- 1--------------|---- 6---------- 6------------ 6|
D|---- 6---------- 1--------------|---------------- 6--------------|
A|--------------------------------|---------------- 4--------------|
E| 4-------------- 1------------ 4|--------------------------------|
http://classicalguitartablature.blogspot.com/
E| 4------ 4----------------------| 6------ 4------ 4-- 2------ 2--|
B| 4---------- 4-- 1-- 2-- 4-- 1--|------------ 4-- 2------ 5------|
G| 5-- 5---------- 1--------------|---- 6---------- 2--------------|
D|---- 6---------- 1--------------|--------------------------------|
A|--------------------------------|---------------- 2--------------|
E| 4-------------- 1------------ 4|--------------------------------|
http://classicalguitartablature.blogspot.com/
http://classicalguitartablature.blogspot.com/
E|--------------------------------|---------------- 4--------------|
B|-------- 5-- 5-------------- 7--|---- 5---------- 5-- 7-- 5-- 7--|
G| 4------ 4-- 4------ 4------ 4--|---- 4---------- 4-- 4------ 4--|
D|---- 6------ 6------ 6------ 6--|---- 6------ 6------ 6-- 6-- 6--|
A|--------------------------------|--------------------------------|
E| 0------ 0------ 0------ 0------| 0------ 0------ 4------ 4------|
http://classicalguitartablature.blogspot.com/
E|-------- 2-- 2------ 4----------|------------ 4------ 2------ 2--|
B| 2------ 2-- 2-------------- 2--|------------ 2------ 2-- 5-- 2--|
G| 2------ 2-- 2------ 2------ 2--|---- 4-- 2-- 2------ 2-- 2-- 2--|
D| 2-- 2---------------------- 2--|-------- 2-------------- 2------|
A| 0------ 0------ 0------ 0------|---------------- 2------ 2------|
E|--------------------------------| 2------ 2----------------------|
http://classicalguitartablature.blogspot.com/
E|--------------------------------|---------------- 4--------------|
B|-------- 5-- 5-------------- 7--|---- 5---------- 5-- 7 5---- 7--|
G| 4---- 4---- 4------ 4------ 4--|---- 4---------- 4-- 4------ 4--|
D|---- 6------ 6------ 6------ 6--|---- 6------ 6------ 6 6---- 6--|
A|--------------------------------|--------------------------------|
E| 0------ 0------ 0------ 0------| 0------ 0------ 4------ 4------|
http://classicalguitartablature.blogspot.com/
E|-------- 2-- 2------ 4----------|--------------------------------|
B| 2------ 2-- 2-------------- 2--|--------------------------------|
G| 2------ 2-- 2------ 2------ 2--|---- 4-- 2---------- 2------ 2--|
D| 2-- 2---------------------- 2--|-------- 2-- 2------ 2------ 2--|
A| 0------ 0------ 0------ 0------|---------------- 2------ 2------|
E|--------------------------------| 2------ 2----------------------|
http://classicalguitartablature.blogspot.com/
E|--------------------------------| 2------------------------------|
B| 5---------------------- 4-- 5--| 3---------- 2------ 0----------|
G| 6-------------- 4-- 6----------| 2------ 2------------------ 2--|
D|---- 6-- 6-- 7 6----------------|---- 0--------------------------|
A|--------------------------------|--------------------------------|
E| 4------------------------------| 0-------------- 0--------------|
http://classicalguitartablature.blogspot.com/
E|--------------------------------| 7-------------------------- 4--|
B| 5---------------------- 4-- 5--| 4------------------ 5------ 2--|
G| 6-------------- 4-- 6----------| 4------ 4------------------ 2--|
D|---- 6-- 6-- 7 6----------------|---- 4------ 4------------------|
A|--------------------------------|--------------------------------|
E| 4------------------------------| 4------------------------------|
http://classicalguitartablature.blogspot.com/
E|---- 2--------------------------|---------------- 2--------------|
B|-------------------- 2----------|------------ 2---- 5 2------ 5--|
G|---------------- 2------ 2------|-------- 2----------------------|
D|------------ 2-------------- 2--|---- 2--------------------------|
A|--------------------------------| 2------------------------------|
E| 2------------------------------|--------------------------------|
http://classicalguitartablature.blogspot.com/
E|-------- 4---------- 4-- 5-- 4--|--------------------------------|
B| 5------ 5------------ 5 5-- 5--|------------ 5------ 5----------|
G| 4------------------------------|---- 4-- 6------------ 6--------|
D|---- 6------ 6-------------- 6--|--------------------------------|
A|--------------------------------|------------------------------ 4|
E| 0-------------- 0--------------| 0-------------- 0--------------|
http://classicalguitartablature.blogspot.com/
E|--------------------------------|--------------------------------|
B|------------ 4-------------- 2--| 1-- 1--------------------------|
G|-------- 1-------------- 1------| 3------ 3-- 3-- 1-- 1----------|
D|---- 3-------------- 3----------| 3---------------------- 4-- 4 3|
A|---------------- 4--------------|--------------------------------|
E|--------------------------------| 2-------------- 2--------------|
http://classicalguitartablature.blogspot.com/
E|--------------------------------|--------------------------------|
B|--------------------------------|---------------- 1-- 2------ 1--|
G|---- 3------ 1------------------|-------- 1------ 1-- 1------ 1--|
D|-------------------- 4 3--------|---- 3------ 3-- 3-- 3------ 3--|
A|--------------------------------| 1-------------- 1--------------|
E| 1-------------- 1--------------|--------------------------------|
http://classicalguitartablature.blogspot.com/
E|--------------------------------|--------------------------------|
B|------------ 4-------------- 2--| 1-- 1--------------------------|
G|-------- 1-------------- 1------| 3------ 3-- 3-- 1-- 1----------|
D|---- 3-------------- 3----------| 3---------------------- 4-- 4 3|
A| 4-------------- 4--------------|--------------------------------|
E|--------------------------------| 2-------------- 2--------------|
http://classicalguitartablature.blogspot.com/
E|--------------------------------|--------------------------------|
B|--------------------------------|-------------- 2-------- 2-- 4--|
G|---- 3------ 1------------------|------ 1---- 3------ 3------ 1--|
D|-------------------- 4 3--------|---- 3---------------------- 1--|
A|--------------------------------| 1------------ 1----------------|
E| 1-------------- 1--------------|--------------------------------|
http://classicalguitartablature.blogspot.com/
E|---- 4--------------------------|---- 1--------------------------|
B|---------------- 1------ 1-- 2--|---------------- 2------ 2-- 4--|
G|-------- 1-- 3------ 3------ 1--|------------ 3------ 3------ 1--|
D|---------------------------- 3--|-------- 3------------------ 1--|
A|--------------------------------| 1-------------- 1--------------|
E| 1-------------- 1--------------|--------------------------------|
http://classicalguitartablature.blogspot.com/
E|---- 4--------------------------|------------ 2 2----------------|
B|---------------- 1------ 1------|---- 4---------- 2 5 2---- 5----|
G|-------- 1-- 3------ 3------ 4--|------ 4------ 2---- 2----------|
D|---------------------------- 4--|------------------ 2------------|
A|--------------------------------| 2-------------- 2--------------|
E| 1-------------- 1--------------|--------------------------------|
http://classicalguitartablature.blogspot.com/
E|------ 4------------ 4 5---- 4--|--------------------------------|
B| 5------ 5---------- 5-- 5-- 5--|------------ 5------ 5 7---- 5--|
G| 4------------------------------|---- 4 6---- 4------ 4 4---- 4--|
D|---- 6------ 6-------------- 6--|-------------------- 6-- 6-- 6--|
A|--------------------------------|--------------------------------|
E| 0-------------- 0--------------| 0-------------- 0--------------|
http://classicalguitartablature.blogspot.com/
E|------ 4------------ 4 5---- 4--|--------------------------------|
B| 5------ 5---------- 5-- 5-- 5--|------------ 5------ 5 7---- 5--|
G| 4------------------------------|---- 4 6---- 4------ 4 4---- 4--|
D|---- 6------ 6-------------- 6--|-------------------- 6-- 6-- 6--|
A|--------------------------------|--------------------------------|
E| 0-------------- 0--------------| 0-------------- 0--------------|
http://classicalguitartablature.blogspot.com/
E|-------- 4---------- 4---- 5----| 4---------------------- 0------|
B|-------- 0----------------------| 0---------- 0---- 2-- 0--------|
G|---- 4------ 4------ 4---- 6----| 4------------------------------|
D|--------------------------------|--------------------------------|
A|--------------------------------|--------------------------------|
E| 0-------------- 0--------------|------ 0------------------------|
http://classicalguitartablature.blogspot.com/
E|-------------------------- 0----|--------------------------------|
B|--------------------------------|--------------------------------|
G|------ 4---- 2------ 1----------|--------------------------------|
D|--------------------------------|--------------------------------|
A|--------------------------------|--------------------------------|
E| 0------------------------------| 0------------------------------|
http://classicalguitartablature.blogspot.com/