To celebrate the anniversary, I am giving you (finally...) : iPhone LickByNeck !!!!!!

Always (BASIC)

Bon Jovi's tune fingerstyle chord melody guitar BASIC arrangement played in the key of E.

Always-Bon Jovi- BASIC ARRANGEMENT played in the key of E.
http://classicalguitartablature.blogspot.com/
E|------------ 4 5-- 4-------- 4--| 0------------------------------|
B| 5---- 5-- 7 5-- 5 5---- 7-- 5--| 2---- 2---------------- 2------|
G| 4---- 4-- 4 4-- 4 4---- 4-- 4--|-------- 2-------------- 2------|
D|---- 6-- 6 6------------ 6------|---- 2-------------- 2----------|
A|--------------------------------| 0---------- 0-- 0---------- 0--|
E| 0-------------- 0--------------|--------------------------------|
http://classicalguitartablature.blogspot.com/
E|------------ 4 5---- 4 2-- 4-- 0|--------------------------------|
B| 5---- 5-- 7-- 4-- 4-- 4-- 4-- 2|-------- 2----------------------|
G| 6---- 6------------ 4 4-- 4-- 2|-------- 2-------------- 2------|
D|---- 6------------------------ 2|-- 2---------------- 2----------|
A| 4-------------- 2--------------| 0---------- 0-- 0--------------|
E|--------------------------------|--------------------------------|
http://classicalguitartablature.blogspot.com/
http://classicalguitartablature.blogspot.com/
E|--------------------------------|--------------------------------|
B|--------------------------------|------------ 0------------------|
G|-------- 1 1 1-- 1-- 1------ 1--| 1-- 1-------- 1------ 1--------|
D|---- 2---------------- 2--------| 2------ 2-------- 2------ 2----|
A| 4------------------------------| 2------------------------------|
E|--------------------------------|--------------------------------|
http://classicalguitartablature.blogspot.com/
E|--------------------------------|--------------------------------|
B|--------------------------------|--------------------------------|
G|-------- 2 2 2-- 2 2------ 2----|------------ 4---------- 4------|
D|---- 2-- 2 2-- 2 2 2---- 2------| 6 6-------- 6---- 4-------- 4--|
A| 0------------------------------|--------------------------------|
E|--------------------------------| 4-------------- 7--------------|
http://classicalguitartablature.blogspot.com/
E|--------------------------------|--------------------------------|
B|--------------------------------|------------ 0 2-- 0------------|
G|-------- 1 1 1-- 1-- 1------ 1--| 1-- 1-------------- 1---- 1----|
D|---- 2---------------- 2--------| 2------ 2-------------- 2------|
A| 4------------------------------| 2-------------- 2--------------|
E|--------------------------------|--------------------------------|
http://classicalguitartablature.blogspot.com/
E|--------------------------------|--------------------------------|
B|--------------------------------|--------------------------------|
G|-------- 2 2 2-- 2 2------ 2----|------------ 4---------- 4------|
D|---- 2-- 2 2-- 2 2 2---- 2------| 6 6-------- 6---- 4-------- 4--|
A| 0------------------------------|--------------------------------|
E|--------------------------------| 4-------------- 7--------------|
http://classicalguitartablature.blogspot.com/
E|--------------------------------|--------------------------------|
B|-------- 2 2 2-- 2 2-------- 5 5|-- 4-- 4---- 4------------ 4-- 5|
G|-------- 4 4 4-- 4 4---------- 4|-- 4-- 4-- 6---------- 4------ 6|
D|---- 2-- 2 2 2-- 2------ 2---- 4|---- 4 4---------- 4---------- 7|
A| 4-------------- 4------------ 6|-------------- 6----------------|
E|--------------------------------|--------------------------------|
http://classicalguitartablature.blogspot.com/
E|---------------------------- 4--| 4-- 2-- 2------ 4-- 5 4-- 2----|
B|-- 5-- 5-- 5 5------ 5-- 5------| 4-- 4-- 4-- 5-- 5---- 2--------|
G|-- 6-- 6-- 6-- 6---- 6-- 6------| 4-- 4-- 4---- 6------ 2--------|
D|---- 7 7-- 7 7------ 7-- 7------|--------------------------------|
A|--------------------------------| 2------------ 0-------- 2------|
E| 0-------------- 0--------------|--------------------------------|
http://classicalguitartablature.blogspot.com/
E|------------------------ 7------|--------------------------------|
B| 5------ 5------------------10--|-- 9------------------ 7--------|
G| 4------ 4----------------------|-- 8------------------ 8-- 9----|
D|---- 6-------------- 6----------|-------- 9---------- 9----------|
A|--------------------------------|--------------------------------|
E| 0---------- 0-- 0--------------| 7-------- 7---- 7--------------|
http://classicalguitartablature.blogspot.com/
E|--------------------------------| 4------ 4----------------------|
B| 5 2---------------------- 2----| 5------ 5 7-- 7---------- 7----|
G| 2 2------------------ 2--------| 6------------ 4-------- 4------|
D| 4 4---- 4---------- 4----------|---- 6-------- 4---- 4----------|
A|--------------------------------| 4------------------------------|
E| 2---------- 2-- 2--------------|---------------- 7--------------|
http://classicalguitartablature.blogspot.com/
E|------------------------ 7------|--------------------------------|
B| 5------ 5------------------10--|-- 9------------------ 7--------|
G| 4------ 4----------------------|-- 8------------------ 8-- 9----|
D|---- 6-------------- 6----------|-------- 9---------- 9----------|
A|--------------------------------|--------------------------------|
E| 0---------- 0-- 0--------------| 7-------- 7---- 7--------------|
http://classicalguitartablature.blogspot.com/
E|--------------------------------| 4------ 4----------------------|
B| 5 2---------------------- 2----| 5------ 5 7-- 7---------- 7----|
G| 2 2------------------ 2--------| 6------------ 4-------- 4------|
D| 4 4---- 4---------- 4----------|---- 6-------- 4---- 4----------|
A|--------------------------------| 4------------------------------|
E| 2---------- 2-- 2--------------|---------------- 7--------------|
http://classicalguitartablature.blogspot.com/
E| 4 4 4---- 4 4 5-- 4 7---- 4----| 5 4 4---- 4 4 5-- 4-- 7--------|
B| 5 5 5---- 5 5 5-- 5 5---- 5----| 4 4-- 4-- 4 4 4-- 4-- 7---- 9--|
G| 4 4 4---- 4-- 4-- 4 4---- 4-- 4|---- 4 4-- 4 4 4-- 4-- 8--------|
D|--------------------------------|--------------------------------|
A|--------------------------------|------------------------ 9------|
E| 0------ 0------ 0------ 0------| 2------ 2---- 2----------------|
http://classicalguitartablature.blogspot.com/
E| 5-- 4------ 5 5 5 4------ 2 4--| 4 2 2--------------------------|
B| 2-- 2 5---- 2 2 2 2-- 5--------| 4-- 4---------- 5---- 4--------|
G| 2-- 2------ 2 2 2--------------| 4 4-- 4---- 4-- 2---- 4--------|
D|--------------------------------|-------------------- 2---- 4----|
A| 0------ 0------ 0------ 0------| 2------ 2------ 0---- 2------ 5|
E|--------------------------------|--------------------------------|
http://classicalguitartablature.blogspot.com/
E|---------------------- 5-- 5----|--------------------------------|
B|------ 7-- 7-- 7-- 8------ 3----|-- 3-- 3-------- 5------ 5------|
G|------ 7-- 7-- 7-- 7------ 4----|-- 4-- 4-------- 2------ 2------|
D|------ 7---------- 7------------|-- 5-- 5-------- 2------ 2------|
A|---- 5 5---- 5 5---- 5 5--------|---------------- 0-- 0-- 0-- 0--|
E|------------------------------ 3|-- 3-- 3-- 3--------------------|
http://classicalguitartablature.blogspot.com/
E|---------------------- 5-- 5----|------ 7---------------------- 2|
B| 7------ 7-- 7 7-- 8------ 3----|------ 3-- 8---------- 7------ 3|
G| 7------ 7-- 7 7-- 7------ 4----|------ 4-- 6---------- 6--------|
D|-------- 7-- 7 7-- 7------------|------------ 7-------- 7--------|
A| 5-- 5-- 5-- 5 5-- 5-- 5--------|--------------------------------|
E|------------------------------ 3|-- 3-- 3------ 5-- 5-- 5-- 5----|
http://classicalguitartablature.blogspot.com/
E|------ 2-- 2-- 2---- 0----------|-------- 3 3-- 3---- 2----------|
B|------ 3------------------ 3----| 3------ 3-- 3 3---------- 3-- 5|
G|------ 4------------------------| 0------------ 0----------------|
D|--------------------------------| 0------------------------------|
A| 2-- 2 2---- 2-- 0 0-- 0-- 0----|--------------------------------|
E|--------------------------------| 3-- 3-- 3-- 3 3---- 3-- 3 3----|
http://classicalguitartablature.blogspot.com/
E|--------------------------------| 2-- 2-- 2-- 2-- 2--------------|
B|---------------------------- 3--| 2-- 2-- 2-- 2-- 2-- 5-- 5------|
G| 2------ 2------ 2------ 2-- 2--| 2-- 2-- 2-- 2-- 2-- 2-- 2------|
D| 2------ 2----------------------|-------------------- 2-- 4------|
A| 0-- 0-- 0-- 0-- 0-- 0-- 0-- 0--| 0-- 0-- 0-- 0-- 0-- 0-- 2-- 2--|
E|--------------------------------|--------------------------------|
http://classicalguitartablature.blogspot.com/
E| 5 4------------ 5 4------------| 4 2 2 2 2 2 2 2 2-- 2 2------ 2|
B| 2 2-- 5-------- 2---- 5--------| 4 4 4 4 4 4 4 4 4-- 4 4---- 4--|
G| 2 2------ 2-- 2 2---------- 4--| 4 4 4 4 4 4 4 4 4-- 4 4------ 4|
D|--------------------------------|--------------------------------|
A| 0-- 0-- 0-- 0-- 0-- 0-- 0-- 0--| 2-- 2-- 2-- 2-- 2-- 2-- 2-- 2--|
E|--------------------------------|--------------------------------|
http://classicalguitartablature.blogspot.com/
E|------------------------------ 4| 4-------------- 4-- 5 4---- 2--|
B| 5 5-- 5 5 5-- 5 5-- 5 5--------| 7-- 7-- 7 7 7-- 2-- 2 4---- 4--|
G| 2 2-- 2 2 2-- 2 2-- 2 2--------| 4-- 4-- 6 6-- 6---- 2-- 4-- 4--|
D| 2 2-- 2 2 2-- 2 2-- 2 2--------|---- 4-- 7 7-- 7----------------|
A| 4------ 4------ 4------ 4------| 6-------------- 0------ 2------|
E|--------------------------------|-------- 0----------------------|
http://classicalguitartablature.blogspot.com/
E|------------------------ 7------|--------------------------------|
B| 5------ 5------------------10--|-- 9------------------ 7--------|
G| 4------ 4----------------------|-- 8------------------ 8-- 9----|
D|---- 6-------------- 6----------|-------- 9---------- 9----------|
A|--------------------------------|--------------------------------|
E| 0---------- 0-- 0--------------| 7-------- 7---- 7--------------|
http://classicalguitartablature.blogspot.com/
E|--------------------------------| 4------ 4----------------------|
B| 5 2---------------------- 2----| 5------ 5 7-- 7---------- 7----|
G| 2 2------------------ 2--------| 6------------ 4-------- 4------|
D| 4 4---- 4---------- 4----------|---- 6-------- 4---- 4----------|
A|--------------------------------| 4------------------------------|
E| 2---------- 2-- 2--------------|---------------- 7--------------|
http://classicalguitartablature.blogspot.com/
E|------------------------ 7------|--------------------------------|
B| 5------ 5------------------10--|-- 9------------------ 7--------|
G| 4------ 4----------------------|-- 8------------------ 8-- 9----|
D|---- 6-------------- 6----------|-------- 9---------- 9----------|
A|--------------------------------|--------------------------------|
E| 0---------- 0-- 0--------------| 7-------- 7---- 7--------------|
http://classicalguitartablature.blogspot.com/
E|--------------------------------| 4------ 4----------------------|
B| 5 2---------------------- 2----| 5------ 5 7-- 7---------- 7----|
G| 2 2------------------ 2--------| 6------------ 4-------- 4------|
D| 4 4---- 4---------- 4----------|---- 6-------- 4---- 4----------|
A|--------------------------------| 4------------------------------|
E| 2---------- 2-- 2--------------|---------------- 7--------------|
http://classicalguitartablature.blogspot.com/
E| 4 4 4---- 4 4 5-- 4 7---- 4----| 5 4 4---- 4 4 5-- 4-- 7--------|
B| 5 5 5---- 5 5 5-- 5 5---- 5----| 4 4-- 4-- 4 4 4-- 4-- 7---- 9--|
G| 4 4 4---- 4-- 4-- 4 4---- 4-- 4|---- 4 4-- 4 4 4-- 4-- 8--------|
D|--------------------------------|--------------------------------|
A|--------------------------------|------------------------ 9------|
E| 0------ 0------ 0------ 0------| 2------ 2---- 2----------------|
http://classicalguitartablature.blogspot.com/
E| 5-- 4------ 5 5 5 4------ 2 4--| 4 2 2--------------------------|
B| 2-- 2 5---- 2 2 2 2-- 5--------| 4-- 4---------- 5---- 4------ 5|
G| 2-- 2------ 2 2 2--------------| 4 4-- 4---- 4-- 2---- 4--------|
D|--------------------------------|-------------------- 2---- 4----|
A| 0------ 0------ 0------ 0------| 2------ 2------ 0---- 2--------|
E|--------------------------------|--------------------------------|
http://classicalguitartablature.blogspot.com/
E|------------ 4 5-- 4------ 4----| 0------------------------------|
B|------ 5-- 7 5 5-- 5-- 7-- 5----| 2---- 2---------------- 2------|
G| 4---- 4-- 4 4 4-- 4-- 4-- 4----|-------- 2-------------- 2------|
D|-- 6---- 6 6---------- 6--------|---- 2-------------- 2----------|
A|--------------------------------| 0---------- 0-- 0---------- 0--|
E| 0------------ 0----------------|--------------------------------|
http://classicalguitartablature.blogspot.com/
E|------------ 4 5---- 4 2-- 4-- 0|--------------------------------|
B| 5---- 5-- 7-- 4-- 4-- 4-- 4-- 2|-------- 2----------------------|
G| 6---- 6------------ 4 4-- 4-- 2|-------- 2-------------- 2------|
D|---- 6------------------------ 2|-- 2---------------- 2----------|
A| 4-------------- 2--------------| 0---------- 0-- 0--------------|
E|--------------------------------|--------------------------------|
http://classicalguitartablature.blogspot.com/
E|---- 0--------------------------|--------------------------------|
B|-- 0----------------------------|--------------------------------|
G|-- 1----------------------------|--------------------------------|
D|-- 4----------------------------|--------------------------------|
A|--------------------------------|--------------------------------|
E| 0------------------------------|--------------------------------|
http://classicalguitartablature.blogspot.com/

0 ความคิดเห็น:

แสดงความคิดเห็น