To celebrate the anniversary, I am giving you (finally...) : iPhone LickByNeck !!!!!!

Love Changes Everything (BASIC)

Climie Fisher's tune fingerstyle chord melody guitar BASIC arrangement played in the key of F.

Love Changes Everything-Climie Fisher-BASIC ARRANGEMENT played in the key of F.
http://classicalguitartablature.blogspot.com/
E|------ 1-------------- 0--------|------ 1------ 0------ 0--------|
B|-- 1------ 1------ 1------ 1----|-- 1------ 1------ 1------ 1----|
G|--------------------------------|--------------------------------|
D|--------------------------------|--------------------------------|
A|--------------------------------|--------------------------------|
E| 1------------ 1-------------- 1|---------------- 1------------ 1|
http://classicalguitartablature.blogspot.com/
E|------ 1-- 0---------- 0-- 1----|-------- 1-- 0-------- 0-- 1----|
B|------ 1-- 1---------- 1-- 1----|-------- 1-- 1---------- 1 1----|
G|------ 2-- 2---------- 2-- 2----|-------- 2-- 2-------- 2-- 2----|
D|--------------------------------|--------------------------------|
A|--------------------------------|--------------------------------|
E|-- 1---- 1 1-- 1---- 1-- 1 1-- 1|---- 1-- 1-- 1-- 1-- 1-- 1-- 1--|
http://classicalguitartablature.blogspot.com/
http://classicalguitartablature.blogspot.com/
E|--------------------------------|--------------------------------|
B|-------- 6-- 5-------- 5-- 6----|------ 6-- 5---------- 5-- 6----|
G|-------- 5-- 5------------ 5----|------ 5-- 5---------- 5-- 5----|
D|-------- 3-- 3-------- 3-- 3----|------ 3-- 3------------------ 5|
A| 5-- 5-- 5-- 5-- 5-- 5-- 5-- 5--| 5-- 5 5-- 5---- 5 5-- 5-- 5----|
E|--------------------------------|--------------------------------|
http://classicalguitartablature.blogspot.com/
E|---------------------- 3--------|---------------------- 3--------|
B|------ 6------------------------|------ 6-------------- 6--------|
G|-- 5------ 5------ 5------ 5----|-- 5------ 5------ 5------ 5----|
D|--------------------------------| 5------------ 5----------------|
A| 3 3-- 3---- 3 3---- 3 3---- 3 3|---- 3 3-- 3-- 3-- 3-- 3-- 3----|
E|--------------------------------|------------------------------ 1|
http://classicalguitartablature.blogspot.com/
E|------ 1---- 0---------- 0-- 1--|------ 1---- 0-------- 0-- 1----|
B|------------ 1---------- 1-- 1--|------ 1---- 1-------- 1-- 1----|
G|------ 2---- 2---------- 2-- 2--|------ 2---- 2-------- 2-- 2----|
D|--------------------------------|--------------------------------|
A|--------------------------------|------------------------------ 5|
E|---- 1-- 1-- 1-- 1-- 1-- 1-- 1--| 1-- 1-- 1-- 1-- 1-- 1-- 1-- 1--|
http://classicalguitartablature.blogspot.com/
E|--------------------------------|--------------------------------|
B|-------- 6-- 5-------- 5-- 6----|------ 6-- 5--------------------|
G|-------- 5---------------- 5----|------ 5-- 5---------- 7-- 5----|
D|-------------------------- 7----|--------------------------------|
A|---- 5-- 5-- 5 5-- 5---- 5 5-- 5|-- 5-- 5-- 5-- 5-- 5-- 5---- 5--|
E|--------------------------------|--------------------------------|
http://classicalguitartablature.blogspot.com/
E|------------------------------ 0|------ 3-- 0--------------------|
B|------ 1-------------- 1-- 3----|---- 1------------ 3------ 1-- 3|
G|---- 0-------- 0-- 2------------|-- 0-------------------------- 2|
D|-- 2----------------------------|--------------------------------|
A| 3-------- 3-- 3-------------- 3|-------------- 3----------------|
E|--------------------------------|------------------------------ 1|
http://classicalguitartablature.blogspot.com/
E|------ 0------------------------|---------------------- 0--------|
B|------ 3-- 3------ 1------------|---------- 3-- 3----------------|
G|---------- 2------ 2-- 2--------|------ 2------ 2------------ 7--|
D|-- 3---------------------- 3----|-- 3-------------- 3------------|
A|--------------------------------|--------------------------------|
E|-------------- 1----------------| 1------------ 1----------------|
http://classicalguitartablature.blogspot.com/
E|--------------------------------|------------------------------ 0|
B|--------------------------------|------ 1-------------- 1-- 3-- 1|
G|---- 5------ 5-------- 5--------|---------- 0-- 0-- 2------------|
D|-------- 7---------- 7----------|-- 2----------------------------|
A| 5------------ 5------------ 5--| 3------------ 3-------------- 3|
E|--------------------------------|--------------------------------|
http://classicalguitartablature.blogspot.com/
E|------ 3---------- 8------ 7-- 5|--------------------------------|
B|---------- 5-------- 5---- 5----| 5---- 5---------- 5------------|
G|-- 0---------------- 5------ 5 5|------------ 7-------- 7-- 5----|
D|---------- 5--------------------|---- 7--------------------------|
A|--------------------------------| 8------------ 8-------------- 8|
E|---------------- 8--------------|--------------------------------|
http://classicalguitartablature.blogspot.com/
E|------------------------------ 5|--------------------------------|
B|---------- 8------ 8------ 5-- 5|------ 5---------- 5------------|
G|------ 5---------- 5---------- 5|------ 5-- 7---------- 7---- 5--|
D|-- 7------------------ 7--------|-- 7----------------------------|
A|-------------- 8-------------- 5|-------------- 5-------------- 5|
E|--------------------------------|--------------------------------|
http://classicalguitartablature.blogspot.com/
E|--------------------------------|------ 3------------------------|
B|---------- 5--------------------|------ 3------ 6------ 5---- 6--|
G|------ 5-------------- 5--------|-------------- 3------ 3---- 5--|
D|---- 7------------ 7------------|---- 3------ 3---- 3-- 3---- 7--|
A|-------------- 5---------- 5----|--------------------------------|
E|------------------------------ 3|------ 3-------- 3---- 3--------|
http://classicalguitartablature.blogspot.com/
E|--------------------------------|-------------- 5----------------|
B|------------ 8------ 6------ 6--|---------- 6 6 6-- 8------ 8----|
G|-- 5---------------- 5------ 5--|---- 7---- 7 7------------------|
D|-- 7-------- 7------ 7------ 7--|---- 8--------------------------|
A|--------------------------------|------------------------------ 5|
E| 5------ 5------ 5------ 5------| 6---- 6------ 6------ 6--------|
http://classicalguitartablature.blogspot.com/
E|--------------------------------|------ 3------------------------|
B|---- 6---- 6--------------------|------ 3------ 6-- 6-- 5-- 6----|
G|---- 5---- 5-------------- 5----|---------------------- 4-- 5----|
D|---- 7------------ 7------ 7----|-- 3------ 3-- 3-- 3-- 3-- 5----|
A|-------- 5------ 5---- 5--------|--------------------------------|
E|------------------------------ 3|------ 3------ 3------ 3------ 5|
http://classicalguitartablature.blogspot.com/
E|--------------------------------|-------------- 5----------------|
B|---------- 8------ 6------ 6----|-- 6-- 6-- 6-- 6-- 8------ 8----|
G|-- 5------ 5------ 5------ 5----|-- 7------ 7-- 7-- 8------ 7----|
D|-- 7------ 7------ 7------ 7----|-- 8-- 8-- 8--------------------|
A|--------------------------------|--------------------------------|
E|------ 5------ 5-------- 5---- 6|------ 6------ 6------ 6--------|
http://classicalguitartablature.blogspot.com/
E|-------------- 5-- 3------ 3----|------ 3------ 1------ 0-- 1----|
B|-- 6------ 6-- 3-- 3------ 3----|------ 1------ 1------ 1-- 1----|
G|-- 3------ 3-- 3-- 3------ 3-- 2|------ 2------ 2------ 2-- 2----|
D|-- 3------ 3------------------ 3|--------------------------------|
A| 3---- 3-------- 3---- 3--------|--------------------------------|
E|--------------------------------| 1-- 1-- 1-- 1-- 1-- 1-- 1-- 1--|
http://classicalguitartablature.blogspot.com/
E|---------- 3------ 1------ 1----|------ 3------------------------|
B|-- 1------ 1------ 1------ 1----|------ 6------ 6-- 6-- 5-- 6----|
G|-- 2------ 2------ 2------ 2----|------ 5------ 5-- 5-- 5---- 5--|
D|-- 3----------------------------|-------------- 3-- 3-- 3---- 3--|
A|------------------------------ 5|-- 5-- 5-- 5-- 5-- 5-- 5-- 5-- 5|
E| 1 1---- 1-- 1-- 1 1---- 1 1----|--------------------------------|
http://classicalguitartablature.blogspot.com/
E|---------- 5------ 3------------|-------------- 5-- 8------ 8----|
B| 5-- 3---- 3------ 3------ 6----|-- 6-- 6-- 6-- 6-- 6------ 6----|
G| 5-------- 5------ 5------------|------ 3-- 3-- 5-- 5------ 5----|
D| 3------------------------------|-- 3-- 3------ 7----------------|
A|-- 5-- 5-- 5-- 5-- 5-- 5-- 5----|--------------------------------|
E|------------------------------ 3|---- 3-- 3 3-- 5-- 5-- 5---- 5 6|
http://classicalguitartablature.blogspot.com/
E|------------------ 8------ 8----|------ 3------ 1---------- 1----|
B|-- 6-- 6-- 6--10--10------10----|------ 1------ 1------ 1---- 1--|
G|------ 7-- 7-- 9-- 9------ 9-- 2|------ 2------ 2---------- 2----|
D|-- 8-- 8-- 8--10-------------- 3|---------------------- 3--------|
A|--------------------------------|--------------------------------|
E|-- 6-- 6-- 6-- 8-- 8-- 8-- 8-- 1|---- 1-- 1-- 1-- 1-- 1-- 1-- 1--|
http://classicalguitartablature.blogspot.com/
E|---------- 3-------- 1---- 1----|------ 3------------------------|
B|---- 1---- 1--------------------|------ 6------ 6-- 6-- 5-- 6----|
G|---- 2---- 2-------- 2---- 2----|------ 5------ 5-- 5-- 5---- 5--|
D|---- 3--------------------------|-------------- 3-- 3-- 3---- 3--|
A|------------------------------ 5|-- 5-- 5-- 5-- 5-- 5-- 5-- 5-- 5|
E| 1-- 1-- 1-- 1-- 1-- 1-- 1-- 1--|--------------------------------|
http://classicalguitartablature.blogspot.com/
E|---------- 5------ 3------------|-------------- 5---- 8---- 8----|
B| 5-- 3---- 3------ 3------ 6----|-- 6-- 6-- 6-- 3---- 3---- 3----|
G| 5-------- 5------ 5------ 3----|---- 3-- 3 3--------------------|
D| 3------------------------ 3----|-- 3-- 3-- 3--------------------|
A|-- 5-- 5-- 5-- 5-- 5-- 5-- 5----|--------------------------------|
E|--------------------------------| 3-- 3-- 3-- 3-- 3-- 3-- 3 3-- 5|
http://classicalguitartablature.blogspot.com/
E|--------------------------------|-------------- 5-- 8------ 8----|
B|------ 8------ 6----------------|-- 6-- 6-- 6--------------------|
G|------ 5------------ 5 5--------|-- 7-- 7-- 7--------------------|
D|------ 7------------------------|--------------------------------|
A|--------------------------------|------------------------------ 3|
E|---- 5-- 5-- 5 5---- 5 5-- 5-- 6|-- 6-- 6-- 6-- 6-- 6-- 6-- 6----|
http://classicalguitartablature.blogspot.com/
E|------ 3------------------ 3----|---- 1-- 1-------------- 0-- 1--|
B|-------------- 6----------------|---- 1-- 1-------------- 1-- 1--|
G|---------------------- 5--------|------------------------ 2-- 2--|
D|--------------------------------|--------------------------------|
A|-- 3-- 3-- 3-- 3-- 3-- 3-- 3----|--------------------------------|
E|--------------------------------| 1-- 1-- 1-- 1-- 1-- 1-- 1-- 1--|
http://classicalguitartablature.blogspot.com/
E|-------- 1-- 0---------- 0-- 1--|--------------------------------|
B|-------- 1-- 1---------- 1------|-------- 3---- 1------------ 1--|
G|---------------------------- 2--|-------- 2------------ 2--------|
D|--------------------------------|---- 3------ 3---- 3------------|
A|--------------------------------|------------------------------ 0|
E| 1-- 1-- 1-- 1-- 1-- 1-- 1-- 1--| 3------------ 3----------------|
http://classicalguitartablature.blogspot.com/
E|--------------------------------|-- 1-------- 3---- 1------ 1----|
B|------------ 3------ 1------ 3--|-- 3-------- 1---- 1------ 1----|
G|---- 2------ 2------ 2------ 2--|--------------------------------|
D|-------- 3-------------- 3-- 3--|-------- 3------------ 3--------|
A|---------------- 0--------------| 1------------ 1-------------- 3|
E|--------------------------------|--------------------------------|
http://classicalguitartablature.blogspot.com/
E|-------------- 3-- 5------------|------ 3------ 1------ 0-- 1----|
B|-- 6-- 6-- 6-- 3-- 3-- 6--------|------ 1------ 1------ 1-- 1----|
G|-- 3-- 3-- 3-- 3-- 3-- 3------ 2|------ 2------ 2------ 2-- 2----|
D|-- 3-- 3-- 3---------- 3-- 3-- 3|--------------------------------|
A|------ 3------ 3------ 3--------|--------------------------------|
E|--------------------------------| 1-- 1-- 1-- 1-- 1-- 1-- 1-- 1--|
http://classicalguitartablature.blogspot.com/
E|---------- 3------ 1------ 1----|------ 3------------------------|
B|-- 1------ 1------ 1------ 1----|------ 6------ 6-- 6-- 5-- 6----|
G|-- 2------ 2------ 2------ 2----|------ 5------ 5-- 5-- 5---- 5--|
D|-- 3----------------------------|-------------- 3-- 3-- 3---- 3--|
A|------------------------------ 5|-- 5-- 5-- 5-- 5-- 5-- 5-- 5-- 5|
E| 1 1---- 1-- 1-- 1 1---- 1 1----|--------------------------------|
http://classicalguitartablature.blogspot.com/
E|---------- 5------ 3------------|-------------- 5-- 8------ 8----|
B| 5-- 3---- 3------ 3------ 6----|-- 6-- 6-- 6-- 6-- 6------ 6----|
G| 5-------- 5------ 5------------|------ 3-- 3-- 5-- 5------ 5----|
D| 3------------------------------|-- 3-- 3------ 7----------------|
A|-- 5-- 5-- 5-- 5-- 5-- 5-- 5----|--------------------------------|
E|------------------------------ 3|---- 3-- 3 3-- 5-- 5-- 5---- 5 6|
http://classicalguitartablature.blogspot.com/
E|------------------ 8------ 8----|------ 3------ 1---------- 1----|
B|-- 6-- 6-- 6--10--10------10----|------ 1------ 1------ 1---- 1--|
G|------ 7-- 7-- 9-- 9------ 9-- 2|------ 2------ 2---------- 2----|
D|-- 8-- 8-- 8--10-------------- 3|---------------------- 3--------|
A|--------------------------------|--------------------------------|
E|-- 6-- 6-- 6-- 8-- 8-- 8-- 8-- 1|---- 1-- 1-- 1-- 1-- 1-- 1-- 1--|
http://classicalguitartablature.blogspot.com/
E|---------- 3-------- 1---- 1----|------ 3------------------------|
B|---- 1---- 1--------------------|------ 6------ 6-- 6-- 5-- 6----|
G|---- 2---- 2-------- 2---- 2----|------ 5------ 5-- 5-- 5---- 5--|
D|---- 3--------------------------|-------------- 3-- 3-- 3---- 3--|
A|------------------------------ 5|-- 5-- 5-- 5-- 5-- 5-- 5-- 5-- 5|
E| 1-- 1-- 1-- 1-- 1-- 1-- 1-- 1--|--------------------------------|
http://classicalguitartablature.blogspot.com/
E|---------- 5------ 3------------|-------------- 5---- 8---- 8----|
B| 5-- 3---- 3------ 3------ 6----|-- 6-- 6-- 6-- 3---- 3---- 3----|
G| 5-------- 5------ 5------ 3----|---- 3-- 3 3--------------------|
D| 3------------------------ 3----|-- 3-- 3-- 3--------------------|
A|-- 5-- 5-- 5-- 5-- 5-- 5-- 5----|--------------------------------|
E|--------------------------------| 3-- 3-- 3-- 3-- 3-- 3-- 3 3-- 5|
http://classicalguitartablature.blogspot.com/
E|--------------------------------|-------------- 5-- 8------ 8----|
B|------ 8------ 6----------------|-- 6-- 6-- 6--------------------|
G|------ 5------------ 5 5--------|-- 7-- 7-- 7--------------------|
D|------ 7------------------------|--------------------------------|
A|--------------------------------|------------------------------ 3|
E|---- 5-- 5-- 5 5---- 5 5-- 5-- 6|-- 6-- 6-- 6-- 6-- 6-- 6-- 6----|
http://classicalguitartablature.blogspot.com/
E|------ 3------------------ 3----|---- 1-- 1-------------- 0-- 1--|
B|-------------- 6----------------|---- 1-- 1-------------- 1-- 1--|
G|---------------------- 5--------|------------------------ 2-- 2--|
D|--------------------------------|--------------------------------|
A|-- 3-- 3-- 3-- 3-- 3-- 3-- 3----|--------------------------------|
E|--------------------------------| 1-- 1-- 1-- 1-- 1-- 1-- 1-- 1--|
http://classicalguitartablature.blogspot.com/
E|-------- 1-- 0---------- 0-- 1--|--------------------------------|
B|-------- 1-- 1---------- 1------|-------- 6-- 5-------- 5-- 6----|
G|---------------------------- 2--|-------- 5-- 5------------ 5----|
D|--------------------------------|-------- 3-- 3-------- 3-- 3----|
A|--------------------------------| 5-- 5-- 5-- 5-- 5-- 5-- 5-- 5--|
E| 1-- 1-- 1-- 1-- 1-- 1-- 1-- 1--|--------------------------------|
http://classicalguitartablature.blogspot.com/
E|--------------------------------|---------------------- 3--------|
B|------ 6-- 5---------- 5-- 6----|------ 6------------------------|
G|------ 5-- 5---------- 5-- 5----|-- 5------ 5------ 5------ 5----|
D|------ 3-- 3------------------ 5|--------------------------------|
A| 5-- 5 5-- 5---- 5 5-- 5-- 5----| 3 3-- 3---- 3 3---- 3 3---- 3 3|
E|--------------------------------|--------------------------------|
http://classicalguitartablature.blogspot.com/
E|---------------------- 3--------|------ 1---- 0-------- 0-- 1----|
B|------ 6-------------- 6--------|------ 1---- 1-------- 1-- 1----|
G|-- 5------ 5------ 5------ 5-- 2|------ 2---- 2-------- 2-- 2----|
D| 5------------ 5-------------- 3|--------------------------------|
A|---- 3 3-- 3-- 3-- 3-- 3-- 3----|--------------------------------|
E|--------------------------------| 1-- 1-- 1-- 1-------- 1---- 1--|
http://classicalguitartablature.blogspot.com/
E|--------------------------------|--------------------------------|
B|--------------------------------|--------------------------------|
G|--------------------------------|--------------------------------|
D|--------------------------------|--------------------------------|
A|--------------------------------|--------------------------------|
E|--------------------------------|--------------------------------|
http://classicalguitartablature.blogspot.com/

0 ความคิดเห็น:

แสดงความคิดเห็น