To celebrate the anniversary, I am giving you (finally...) : iPhone LickByNeck !!!!!!

Love Of A Lifetime (BASIC)

Firehouse's tune fingerstyle chord melody guitar BASIC arrangement played in the key of G.

Love Of A Lifetime-Firehouse- BASIC ARRANGEMENT played in the key of G.
http://classicalguitartablature.blogspot.com/
E|---------------- 3--------------|---------------- 0--------------|
B|------------ 3------ 3----------|------------ 3---- 3------------|
G|-------- 0-------------- 0------|-------- 2------------ 2--------|
D|---- 0---------------------- 0--|---- 0---------------------- 0--|
A|--------------------------------|--------------------------------|
E| 3------------------------------| 2------------------------------|
http://classicalguitartablature.blogspot.com/
E|---------------- 3--------------|-------------- 0----------------|
B|-------------------- 5----------|------------ 3------ 3----------|
G|---------- 4------------ 4------|-------- 2-------------- 2------|
D|-------- 2------------------ 2--| 0-------------------------- 0--|
A|--------------------------------|--------------------------------|
E| 0------------------------------|--------------------------------|
http://classicalguitartablature.blogspot.com/
http://classicalguitartablature.blogspot.com/
E|---------------- 0--------------|---------------- 2--------------|
B|-------------------- 1----------|-------------------- 3----------|
G|------------ 0---------- 0------|------------ 2-------- 2--------|
D|-------- 2------------------ 2--|-------- 4------------------ 4--|
A| 0------------------------------| 2------------------------------|
E|--------------------------------|--------------------------------|
http://classicalguitartablature.blogspot.com/
E|---------------- 0--------------|-------- 0---------- 2----------|
B|-------------------- 1----------|------------ 3---------- 3------|
G|------------ 0---------- 0------|---- 2---------- 2---------- 2--|
D|-------- 2------------------ 2--| 0------------------------------|
A| 3------------------------------|--------------------------------|
E|--------------------------------|--------------------------------|
http://classicalguitartablature.blogspot.com/
E| 3---------- 2------------------|---------------------------- 0--|
B|---- 3-------------- 3----------|------------ 0---- 3------------|
G|-------- 2-------------- 2-- 2--| 0------ 0-------------- 0------|
D|---------------------------- 0--|-------- 0----------------------|
A|--------------------------------|--------------------------------|
E|--------------------------------| 3------------------------------|
http://classicalguitartablature.blogspot.com/
E|--------------------------------|-------------- 3----------------|
B|------ 3---- 0------------------|------------------ 5------------|
G|---- 2-------------- 2------ 4--|---------- 4---------- 4--------|
D|--------------------------------|------ 2-------------------- 2--|
A|--------------------------------|--------------------------------|
E| 2------------------------------| 0------------------------------|
http://classicalguitartablature.blogspot.com/
E|---------------- 0--------------|--------------------------------|
B|------------ 3------ 3------ 3--| 3-- 1------ 1------ 0------ 0--|
G|-------- 2-------------- 2------| 0-- 0------ 0---------- 0 2----|
D| 0------------------------------| 2-- 2------ 2---------- 0------|
A|--------------------------------| 0------------------------------|
E|--------------------------------|--------------------------------|
http://classicalguitartablature.blogspot.com/
E|--------------------------------|--------------------------------|
B|---------------------------- 0--|--------------------------------|
G|---- 2------ 2---- 0------------|-------- 2-- 2------ 0------ 2--|
D|------------------------ 0------|-------- 2-- 2------------------|
A| 2------------------------------| 3------------------------------|
E|--------------------------------|--------------------------------|
http://classicalguitartablature.blogspot.com/
E|-------- 0---------- 2----------| 3---------- 2------------------|
B|------------ 3---------- 3------|---- 3-------------- 3----------|
G|---- 2---------- 2---------- 2--|-------- 2-------------- 2-- 2--|
D| 0------------------------------|---------------------------- 0--|
A|--------------------------------|--------------------------------|
E|--------------------------------|--------------------------------|
http://classicalguitartablature.blogspot.com/
E|---------------------------- 0--|--------------------------------|
B|------------ 0---- 3------------|------ 3---- 0------------------|
G| 0------ 0-------------- 0------|---- 2-------------- 2------ 4--|
D|-------- 0----------------------|--------------------------------|
A|--------------------------------|--------------------------------|
E| 3------------------------------| 2------------------------------|
http://classicalguitartablature.blogspot.com/
E|-------------- 3----------------|---------------- 0--------------|
B|------------------ 5------------|------------ 3------ 3------ 3--|
G|---------- 4---------- 4--------|-------- 2-------------- 2------|
D|------ 2-------------------- 2--| 0------------------------------|
A|--------------------------------|--------------------------------|
E| 0------------------------------|--------------------------------|
http://classicalguitartablature.blogspot.com/
E|--------------------------------|--------------------------------|
B| 3-- 1------ 1------ 0------ 0--|---------------------------- 0--|
G| 0-- 0------ 0---------- 0 2----|---- 2------ 2---- 0------------|
D| 2-- 2------ 2---------- 0------|------------------------ 0------|
A| 0------------------------------| 2------------------------------|
E|--------------------------------|--------------------------------|
http://classicalguitartablature.blogspot.com/
E|--------------------------------|-------- 0---------- 2----------|
B|--------------------------------|------------ 3---------- 3------|
G|-------- 2-- 2------ 0------ 2--|---- 2---------- 2---------- 2--|
D|-------- 2-- 2------------------| 0------------------------------|
A| 3------------------------------|--------------------------------|
E|--------------------------------|--------------------------------|
http://classicalguitartablature.blogspot.com/
E| 3---------- 2------------------| 0------ 0-- 2---- 3-------- 2--|
B|---- 3------------ 3------------| 1------ 1-- 1---- 1------------|
G|-------- 2-------------- 2-- 0--| 0---------- 0------------------|
D|---------------------------- 0--|---- 2------------------ 2------|
A|--------------------------------| 0------------------------------|
E|--------------------------------|--------------------------------|
http://classicalguitartablature.blogspot.com/
E|------------------------------ 0|--------------------------------|
B|---- 5-- 3---------------- 3-- 1|-------- 3-- 3------ 0------ 3--|
G|---- 2-- 2-------- 4---------- 0|-------- 0-- 0------------------|
D|---- 4-- 4---- 4----------------| 2-- 2-- 2-- 2------------------|
A| 2------------------------------| 0------------------------------|
E|--------------------------------|--------------------------------|
http://classicalguitartablature.blogspot.com/
E|---- 0--------------------------| 0------ 0-- 2---- 3-------- 2--|
B|--------------------------------| 1------ 1-- 1---- 1------------|
G|------------ 2---------- 0------| 0---------- 0------------------|
D|-------- 0---------- 0----------|---- 2------------------ 2------|
A| 2------------------------------| 0------------------------------|
E|--------------------------------|--------------------------------|
http://classicalguitartablature.blogspot.com/
E|------------------------------ 0|---------- 2------ 3------ 2----|
B|---- 5-- 3---------------- 3----|------ 1------------------------|
G|---- 2-- 2-------- 4------------|-- 0---------- 0------ 0--------|
D|---- 4-- 4---- 4----------------|--------------------------------|
A| 2---------------------------- 3|------------------------------ 5|
E|--------------------------------|--------------------------------|
http://classicalguitartablature.blogspot.com/
E|--------------------------------|--------------------------------|
B|---------- 3---------------- 3--|------------ 3------------------|
G|------ 2---------------- 2------|-------- 2-------------- 2------|
D|-- 4---------------- 4----------|---- 4-------------- 4----------|
A|--------------------------------|--------------------------------|
E|--------------------------------|--------------------------------|
http://classicalguitartablature.blogspot.com/
E| 3------------------------------|--------------------------------|
B| 3------ 3-- 0------ 3------ 3--|------------ 3-------- 3---- 3--|
G| 0------ 0-- 0------------------|-------- 4-------- 4-------- 0--|
D|---- 0---------- 0------ 0------|---- 4---------------------- 2--|
A|--------------------------------| 2------------------------------|
E| 3------------------------------|--------------------------------|
http://classicalguitartablature.blogspot.com/
E|--------------------------------|--------------------------------|
B|---- 1-------------- 1----------|--------------------------------|
G|------------ 0---------- 0------|-------- 2------------------ 2--|
D|-------- 2------------------ 2--|---- 0-------------- 0------ 0--|
A| 3------------------------------|------------------------ 0------|
E|--------------------------------| 2---------- 3------------------|
http://classicalguitartablature.blogspot.com/
E|-------------------- 3---- 5----|------------------ 2-------- 2--|
B|-------- 0-- 3------------------|---------- 3--------------------|
G| 0------ 0-- 0---------- 0------|------ 2------ 2------ 2--------|
D|---- 0--------------------------|-- 4----------------------------|
A|------------------------------ 2|--------------------------------|
E| 3------------------------------|--------------------------------|
http://classicalguitartablature.blogspot.com/
E|---------- 2 2 0----------------|---------------------------- 3--|
B|------ 1---------- 1------ 1----|--------------------------------|
G|---- 0------------------ 0------|-------- 2---------- 2----------|
D|--------------------------------|---- 0---------- 0--------------|
A| 3------------------------------|------------------------ 0------|
E|--------------------------------| 2---------- 3------------------|
http://classicalguitartablature.blogspot.com/
E| 3------------------------------|--------------------------------|
B| 3------ 3-- 0------ 3------ 3--|------------ 3-------- 3---- 3--|
G| 0------ 0-- 0------------------|-------- 4-------- 4-------- 0--|
D|---- 0---------- 0------ 0------|---- 4---------------------- 2--|
A|--------------------------------| 2------------------------------|
E| 3------------------------------|--------------------------------|
http://classicalguitartablature.blogspot.com/
E|--------------------------------|--------------------------------|
B|---- 1-------------- 1----------|------------ 3-------------- 3--|
G|------------ 0---------- 0------|-------- 2---------- 2----------|
D|-------- 2------------------ 2--|---- 4------------------ 4------|
A| 3------------------------------| 5------------------------------|
E|--------------------------------|--------------------------------|
http://classicalguitartablature.blogspot.com/
E|-------------------------- 0----|-------------------------- 0----|
B| 3-- 1------ 1------ 3----------|------------ 3------------------|
G| 0-- 0--------------------------|-------- 2-------- 2------------|
D| 2------ 2----------------------|---- 0------------------ 0------|
A| 0---------------------------- 2|--------------------------------|
E|--------------------------------|--------------------------------|
http://classicalguitartablature.blogspot.com/
E| 0------------------------------|------------------------------ 3|
B| 3------ 3-- 3------ 0------ 3--|------------ 3------------------|
G| 0------ 0-- 0------ 0------ 2--|-------- 2---------- 0-- 2-- 2--|
D|---- 2------ 2------ 2------ 4--|---- 4--------------------------|
A| 3------------------------------| 5------------------------------|
E|--------------------------------|--------------------------------|
http://classicalguitartablature.blogspot.com/
E|---------------------- 5---- 3--| 2---------------------- 3-- 2--|
B|---------------- 3--------------|------------ 3------------------|
G|---- 0------ 0------ 0----------|-------- 2---------- 2----------|
D|-------- 0----------------------|---- 0--------------------------|
A|--------------------------------|--------------------------------|
E| 3------------------------------| 2------------------------------|
http://classicalguitartablature.blogspot.com/
E| 0---------------------- 0-- 2 0|------------ 5------------------|
B| 0---------- 0------------------|------------------------ 7------|
G|-------- 0---------- 0----------| 7------ 7---------- 7------ 7--|
D|---- 2--------------------------|---- 7---------- 7--------------|
A|--------------------------------| 5------------------------------|
E| 0------------------------------|--------------------------------|
http://classicalguitartablature.blogspot.com/
E|-------- 7---- 7---- 7----------| 7------------------------------|
B|---- 8------------10 8---- 8----| 8--10------ 8---------- 8------|
G| 9---------- 9-------- 9--------| 7------ 9 7---------------- 9--|
D|--------------------------------|-------------------- 9----------|
A|--------------------------------|--------------------------------|
E| 8------------------------------| 7------------------------------|
http://classicalguitartablature.blogspot.com/
E|-------- 2------ 5-- 2---- 0----| 2-- 2 2---- 2-- 2 2-- 2-- 2----|
B| 0-- 3---------- 3-- 3------ 3--| 3-- 3-- 3-- 3-- 3 3-- 3-- 3----|
G| 0-- 0---- 0---- 0---------- 0--| 2-- 2-- 2-- 2-- 2 2-- 2-- 2----|
D| 2-- 2------ 2------------------| 0-------------- 0--------------|
A| 0------------------------------|--------------------------------|
E|--------------------------------|--------------------------------|
http://classicalguitartablature.blogspot.com/
E| 5-- 5-- 5-- 5 5-- 5-- 5-- 5--10|--10--10--10--10--10--12--------|
B| 7-- 7-- 7-- 7 7-- 7-- 7-- 7--10|--10--10--10--10--10--10--------|
G| 7-- 7-- 7-- 7 7-- 7-- 7-- 7--11|--11--11--11--11--11--11--11----|
D| 0-------------- 0--------------| 0------------ 0----------------|
A|--------------------------------|--------------------------------|
E|--------------------------------|--------------------------------|
http://classicalguitartablature.blogspot.com/
E|14--14--14--14--14--14--14------| 3------------------------------|
B|15--15------15--15--15--15------| 3------ 3-- 0------ 3------ 3--|
G|14--14--14--14--14--14--14--12--| 0------ 0-- 0------------------|
D| 0-------------- 0--------------|---- 0---------- 0------ 0------|
A|--------------------------------|--------------------------------|
E|--------------------------------| 3------------------------------|
http://classicalguitartablature.blogspot.com/
E|--------------------------------|--------------------------------|
B|------------ 3-------- 3---- 3--|---- 1-------------- 1----------|
G|-------- 4-------- 4-------- 0--|------------ 0---------- 0------|
D|---- 4---------------------- 2--|-------- 2------------------ 2--|
A| 2------------------------------| 3------------------------------|
E|--------------------------------|--------------------------------|
http://classicalguitartablature.blogspot.com/
E|--------------------------------|-------------------- 3---- 5----|
B|--------------------------------|-------- 0-- 3------------------|
G|-------- 2------------------ 2--| 0------ 0-- 0---------- 0------|
D|---- 0-------------- 0------ 0--|---- 0--------------------------|
A|------------------------ 0------|------------------------------ 2|
E| 2---------- 3------------------| 3------------------------------|
http://classicalguitartablature.blogspot.com/
E|------------------ 2-------- 2--|---------- 2 2 0----------------|
B|---------- 3--------------------|------ 1---------- 1------ 1----|
G|------ 2------ 2------ 2--------|---- 0------------------ 0------|
D|-- 4----------------------------|--------------------------------|
A|--------------------------------| 3------------------------------|
E|--------------------------------|--------------------------------|
http://classicalguitartablature.blogspot.com/
E|---------------------------- 3--| 3------------------------------|
B|--------------------------------| 3------ 3-- 0------ 3------ 3--|
G|-------- 2---------- 2----------| 0------ 0-- 0------------------|
D|---- 0---------- 0--------------|---- 0---------- 0------ 0------|
A|------------------------ 0------|--------------------------------|
E| 2---------- 3------------------| 3------------------------------|
http://classicalguitartablature.blogspot.com/
E|--------------------------------|--------------------------------|
B|------------ 3-------- 3---- 3--|---- 1-------------- 1----------|
G|-------- 4-------- 4-------- 0--|------------ 0---------- 0------|
D|---- 4---------------------- 2--|-------- 2------------------ 2--|
A| 2------------------------------| 3------------------------------|
E|--------------------------------|--------------------------------|
http://classicalguitartablature.blogspot.com/
E|--------------------------------|-------------------------- 0----|
B|------------ 3-------------- 3--| 3-- 1------ 1------ 3----------|
G|-------- 2---------- 2----------| 0-- 0--------------------------|
D|---- 4------------------ 4------| 2------ 2----------------------|
A| 5------------------------------| 0---------------------------- 2|
E|--------------------------------|--------------------------------|
http://classicalguitartablature.blogspot.com/
E|-------------------------- 0----| 0------------------------------|
B|------------ 3------------------| 3------ 3-- 3------ 0------ 3--|
G|-------- 2-------- 2------------| 0------ 0-- 0------ 0----------|
D|---- 0------------------ 0------|---- 2------ 2------ 2----------|
A|--------------------------------| 3------------------------------|
E|--------------------------------|--------------------------------|
http://classicalguitartablature.blogspot.com/
E|--------------------------------|--------------------------------|
B|------------ 3------------------| 3------------------------------|
G|-------- 2---------- 2------ 2--|--------------------------------|
D|---- 4------------------ 4------|--------------------------------|
A| 5------------------------------|--------------------------------|
E|--------------------------------|--------------------------------|
http://classicalguitartablature.blogspot.com/
E|--------------------------------|--------------------------------|
B|--------------------------------|---------- 0-- 3-- 0------------|
G|-------------------- 0-- 2-- 2--|---- 0 0-------------- 0--------|
D|--------------------------------|-- 0---------------------- 0----|
A|--------------------------------|--------------------------------|
E|--------------------------------| 3------------------------------|
http://classicalguitartablature.blogspot.com/
E|---------------- 2--------------|--------------------------------|
B|-------------------- 3----------|------------------ 3------------|
G|------------ 2---------- 2------|------------ 5-------- 5--------|
D|-------- 4------------------ 4--|-------- 5------------------ 5--|
A| 2------------------------------| 3------------------------------|
E|--------------------------------|--------------------------------|
http://classicalguitartablature.blogspot.com/
E|------------------------------10|--------------------------------|
B|---------------------- 7--------|----10------ 7------------------|
G|---------------- 7--------------|-------------------- 7----------|
D|------------ 7------------------|--------------------------------|
A| 3------------------------------|--------------------------------|
E|------10------------------------|--------------------------------|
http://classicalguitartablature.blogspot.com/
E|-------------------------- 3----|--------------------------------|
B|------------------------ 3------|--------------------------------|
G|---------------------- 0--------|--------------------------------|
D|---------------------- 0--------|--------------------------------|
A|--------------------------------|--------------------------------|
E|------------------ 3------------|--------------------------------|
http://classicalguitartablature.blogspot.com/

0 ความคิดเห็น:

แสดงความคิดเห็น