To celebrate the anniversary, I am giving you (finally...) : iPhone LickByNeck !!!!!!

Officially Missing You (BASIC)

Tamia's tune fingerstyle chord melody guitar BASIC arrangement played in the key of G.

Officially Missing You-Tamia-BASIC ARRANGEMENT played in the key of G.
http://classicalguitartablature.blogspot.com/
E|--------------------------------|--------------------------------|
B|---- 3------ 3------------------|---- 2------ 4------ 4----------|
G|---- 0------ 0------ 0----------|---- 2------ 2------ 2----------|
D|---- 0------ 0------ 0----------|---- 2------ 4------ 4----------|
A|--------------------------------|------------ 2-------------- 2--|
E| 3---------- 3-------------- 3--| 2------------------------------|
http://classicalguitartablature.blogspot.com/
E|---- 3------ 3------ 3----------|--------------------------------|
B|---- 0------ 0------ 0----------|---- 5------ 5------ 5----------|
G|---- 0------ 0------ 0----------|---- 5------ 4------ 4----------|
D|--------------------------------|---- 3------ 3------ 3----------|
A|--------------------------------| 5------------------------------|
E| 0---------- 0-------------- 0--|------------ 3-------------- 3--|
http://classicalguitartablature.blogspot.com/
http://classicalguitartablature.blogspot.com/
E|---- 0------ 0------ 0----------|--------------------------------|
B|---- 1------ 1------ 1----------|---- 7------ 8------ 8----------|
G|---- 0------ 0------ 0----------|---- 7------ 7------ 7----------|
D|--------------------------------|---- 7------ 9------ 9----------|
A| 3---------- 3-------------- 3--|--------------------------------|
E|--------------------------------| 0---------- 0-------------- 0--|
http://classicalguitartablature.blogspot.com/
E|---- 0------ 0------ 0----------|--------------------------------|
B|---- 1------ 1------ 1----------|---- 5--------------------------|
G|---- 0------ 0------------------|---- 5-- 5----------------------|
D|--------------------------------|---- 5-- 5------------ 5---- 7--|
A| 0---------- 0-------------- 0--| 5-------------- 5-- 7----------|
E|--------------------------------|--------------------------------|
http://classicalguitartablature.blogspot.com/
E|--------------------------------|--------------------------------|
B| 0---------------------------- 0|---- 1-- 0------ 0--------------|
G| 0------ 2-- 0---- 0------------| 2------ 2-- 2-- 2------ 2-- 0--|
D| 0-- 0-- 0-- 0------------------| 2---- 2------------ 1----------|
A|--------------------------------|---------------- 2--------------|
E| 3-------------------------- 3--| 2------------------------------|
http://classicalguitartablature.blogspot.com/
E|--------------------------------|--------------------------------|
B|---- 0-- 0-- 3-------------- 0--| 0------ 0----------------------|
G|---- 0-- 0-- 0-- 2-- 0-- 0------| 5-- 5---- 2 0-------- 0---- 4 2|
D|---- 0-- 0-- 0-- 0-- 0-- 0------| 3---------------- 2-------- 2--|
A|--------------------------------| 5-------- 0--------------------|
E| 0------------------------------|---------------- 3--------------|
http://classicalguitartablature.blogspot.com/
E|--------------------------------|--------------------------------|
B|--------------------------------|--------------------------------|
G|---- 2-- 2-- 0---------- 0-- 2--|------ 2---- 2---------- 0-- 0--|
D|---- 2-- 2-- 2-- 0-- 2------ 2--|------ 2---- 2------ 2----------|
A| 3------------------------------|--------------------------------|
E|--------------------------------| 0---------- 0------------------|
http://classicalguitartablature.blogspot.com/
E|--------------------------------|--------------------------------|
B|--------------------------------|--------------------------------|
G|-- 2 0--------------------------| 4-- 5-- 4----------------------|
D|------ 2------------ 2-- 0-- 0--| 5-- 5-- 5-- 7-- 5-- 5----------|
A| 0---------- 0------------------|---- 5-- 5------------------ 5--|
E|--------------------------------|--------------------------------|
http://classicalguitartablature.blogspot.com/
E| 2-------------------------- 2--| 2-- 2-- 2-- 2-- 2-- 3-- 5-- 3--|
B| 0-------------------------- 0--| 2------ 2-- 2-- 4-- 4-- 4-- 0--|
G| 2-------------------------- 2--| 2-- 2------ 2-- 2-- 2-- 2-- 0--|
D|---- 0-------------- 0----------|--------------------------------|
A|--------------------------------|---------------- 2--------------|
E| 3---------- 3-------------- 3--| 2---------- 2------------------|
http://classicalguitartablature.blogspot.com/
E|-------------------------- 3-- 7|-- 8-- 7-- 5-- 5------ 7--------|
B|------------ 0-------- 0------ 6|------ 6-- 6-- 3------ 3---- 8--|
G|---- 0------ 0---------------- 5|-- 5------ 5-- 4-- 4-- 4--------|
D|---- 0------ 0------ 0----------|--------------------------------|
A|--------------------------------| 5---------- 5------------------|
E| 0---------- 0------------------|---------------- 3--------------|
http://classicalguitartablature.blogspot.com/
E|------------ 7------------------|---------------------------- 7--|
B|---- 8----------10---- 8--------| 7-- 8--10-- 8------------------|
G|---- 9-------------- 9----------| 7-- 7------------------ 7------|
D|----10--------------------------| 7-- 9------ 9------ 9----------|
A|--------------------------------|--------------------------------|
E| 8-------------- 8--------------| 0---------- 0------------------|
http://classicalguitartablature.blogspot.com/
E| 7-- 5------------------------ 7|-- 8---- 7 5---------------- 5--|
B| 5---- 8---- 8------------------|---- 4-- 5---------- 5-- 8------|
G| 5-- 5------ 5---------- 7-- 7--|---- 5-- 5------ 7--------------|
D|------ 5---- 5------ 5----------|-------------- 5----------------|
A| 0---------- 0------------------|---- 5-- 5----------------------|
E|--------------------------------|--------------------------------|
http://classicalguitartablature.blogspot.com/
E| 7-- 8-- 7------------------ 7--|--------------------------------|
B| 0-- 0-- 0 8--------------------|10----10--1210------------------|
G| 0-- 0 0-- 9--------------------| 9---------- 8---------- 8-- 7--|
D|--------------------------------|11--11------ 7------ 9----------|
A|10------------------------------| 9------------------------------|
E|--------------------------------|-------------- 7----------------|
http://classicalguitartablature.blogspot.com/
E| 7-- 8-- 7----------------------|------------------------ 710----|
B| 8------ 8--10--10 8---- 8-- 8--|10------ 8-- 8-- 8--10----------|
G| 9-- 9-- 9-- 9-- 9-- 9----------|---- 9-- 9-- 9--10--------------|
D|------------ 0-- 0---- 8--------|10--10------10------------------|
A|--------------------------------|----------------10--------------|
E| 0---------- 0------------------|10------------------------------|
http://classicalguitartablature.blogspot.com/
E| 7------------------------------|------------------------ 7--10--|
B| 8------ 8-- 8---------- 8-- 8--| 7 7------------ 8--10-- 8 8----|
G| 9------ 9-- 9------------------| 7-------- 9---- 7------ 7------|
D|---- 9------ 9------ 9----------| 7-------------- 9-- 9----------|
A|--------------------------------|--------------------------------|
E| 8---------- 8------------------| 7---------- 7-- 0--------------|
http://classicalguitartablature.blogspot.com/
E| 7 5------------------------ 7--| 7------------ 7------------ 7--|
B|-------- 8-- 8------ 5----------| 7----10-- 8-- 7----10-- 8------|
G| 5------------------ 5----------| 8---- 8---- 8 8---- 8----------|
D|-------- 5-- 5------ 5----------|------ 7---- 7------ 7----------|
A|--------------------------------|--------------------------------|
E| 5---------- 5-------------- 5--| 7------------------------------|
http://classicalguitartablature.blogspot.com/
E| 7------ 7-- 7-- 7--------------|---- 7---------------- 7--------|
B| 8-- 8-- 8-- 8-- 8--10 810 8--10|----10------10-------- 8---- 8--|
G| 9-- 9------ 9-- 9---- 9--------|---- 7--------------------------|
D|-------------------------- 7----|------------ 7------ 7----------|
A|--------------------------------|--------------------------------|
E| 8---------- 8---------------- 7|------------ 7------------------|
http://classicalguitartablature.blogspot.com/
E| 7-- 7-- 7--10-- 8-- 7-- 7------|---------------------- 7--10----|
B|---- 8-- 8-- 8-- 8-- 8------10--|---- 8---------- 8--10----------|
G| 9-- 9------ 9-- 9-- 9------ 9--|---- 9------ 9 9---- 9----------|
D|---------------------------- 9--|---- 9------ 9 9---- 9----------|
A|--------------------------------|--------------------------------|
E| 0---------- 0------------------| 9---------- 9------------------|
http://classicalguitartablature.blogspot.com/
E| 7------------------------------|---------------------- 7---- 7--|
B| 810-------- 8------10----------| 7-- 8--10-- 8-------------- 5--|
G| 9 9-------- 9------ 9------ 7--| 7---------- 7-------------- 5--|
D|--------------------------------| 7-- 7------ 9------ 9----------|
A|--------------------------------|------------ 7------------------|
E| 8---------- 8------------------| 7------------------------------|
http://classicalguitartablature.blogspot.com/
E|---------- 7-- 7-- 5---------- 8|-- 8-- 7-- 5------------ 7 5 7--|
B| 8-------- 8--------------------|---- 5-- 5 5---- 8 8------------|
G| 5-------- 5---------- 7---- 7--|---- 5-- 5 5-- 5---- 5----------|
D| 5-- 5--------------------------|-------------- 5---- 5----------|
A| 0-------- 0---- 0--------------|---- 5-- 5----------------------|
E|--------------------------------|--------------------------------|
http://classicalguitartablature.blogspot.com/
E| 2-------------------------- 2--| 2-- 2-- 2-- 2-- 2-- 3-- 5-- 3--|
B| 0-------------------------- 0--| 2------ 2-- 2-- 4-- 4-- 4-- 0--|
G| 2-------------------------- 2--| 2-- 2------ 2-- 2-- 2-- 2-- 0--|
D|---- 0-------------- 0----------|--------------------------------|
A|--------------------------------|---------------- 2--------------|
E| 3---------- 3-------------- 3--| 2---------- 2------------------|
http://classicalguitartablature.blogspot.com/
E|-------------------------- 3-- 7|-- 8-- 7-- 5-- 5------ 7--------|
B|------------ 0-------- 0------ 6|------ 6-- 6-- 3------ 3---- 8--|
G|---- 0------ 0---------------- 5|-- 5------ 5-- 4-- 4-- 4--------|
D|---- 0------ 0------ 0----------|--------------------------------|
A|--------------------------------| 5---------- 5------------------|
E| 0---------- 0------------------|---------------- 3--------------|
http://classicalguitartablature.blogspot.com/
E|------------ 7------------------|---------------------------- 7--|
B|---- 8----------10---- 8--------| 7-- 8--10-- 8------------------|
G|---- 9-------------- 9----------| 7-- 7------------------ 7------|
D|----10--------------------------| 7-- 9------ 9------ 9----------|
A|--------------------------------|--------------------------------|
E| 8-------------- 8--------------| 0---------- 0------------------|
http://classicalguitartablature.blogspot.com/
E| 7-- 5--------------------------| 7-- 8 7-- 5--------------------|
B| 5---- 8---- 8------------------|------ 5-------------------- 5--|
G| 5-- 5------ 5---------- 7-- 7--|---- 5 5------------ 7----------|
D|------ 5---- 5------ 5----------|--------------------------------|
A| 0---------- 0------------------|---- 5-- 5----------------------|
E|--------------------------------|--------------------------------|
http://classicalguitartablature.blogspot.com/
E|--------------------------------|--------------------------------|
B|10-- 8--10 8------------ 8-- 8--|-- 5----------------------------|
G| 9-- 9-- 9 9----1010------------|---- 7------ 7------ 7-- 7 7----|
D|10--10--1010---- 9--------------|-------- 5----------------------|
A| 8--------------10--------------|--------------------------------|
E|------------------------------ 8|--------------------------------|
http://classicalguitartablature.blogspot.com/
E|--------------------------------|--------------------------------|
B|10-- 8--10 8------------ 8------| 8 5-- 5 8------------ 8-- 8----|
G| 9-- 9-- 9 9----1010------------|---- 7---------- 5--------------|
D|10--10--1010---- 9------------ 5|------------ 5------------------|
A| 8--------------10--------------|--------------------------------|
E|------------------------------ 8|--------------------------------|
http://classicalguitartablature.blogspot.com/
E| 5-- 5-- 7-- 7------------------| 5-- 5-- 3-------- 7------ 7-- 7|
B| 5-- 5-- 5-- 7------10------ 8 8|---- 0-- 0--10--------10 8------|
G| 5-- 5-- 5-- 8------ 8----------| 0-- 0-- 0----------------------|
D|------------------------ 7------|--------------------------------|
A|--------------------------------|-------- 5----------------------|
E| 5-------------- 7--------------| 0-------------- 9--------------|
http://classicalguitartablature.blogspot.com/
E|----------------------------12--|12--1010--------12----------1010|
B|--------------------------------|------------12--------12--------|
G|--------------------------------| 9-- 9-- 9--------------------12|
D|--------------------------------|--------------------------------|
A|--------------------------------|--------------------------------|
E|--------------------------------| 8------------------------------|
http://classicalguitartablature.blogspot.com/
E|----------10--------------------| 2-------------------------- 2--|
B|--13----1210------13--1210------| 0-------------------------- 0--|
G|--12----1212------12----1212----| 2-------------------------- 2--|
D|----10--10--------10----10------|---- 0-------------- 0----------|
A|--------------------------------|--------------------------------|
E|----10--10----------------------| 3---------- 3-------------- 3--|
http://classicalguitartablature.blogspot.com/
E| 2-- 2-- 2-- 2-- 2-- 3-- 5-- 3--|-------------------------- 3-- 7|
B| 2------ 2-- 2-- 4-- 4-- 4-- 0--|------------ 0-------- 0------ 6|
G| 2-- 2------ 2-- 2-- 2-- 2-- 0--|---- 0------ 0---------------- 5|
D|--------------------------------|---- 0------ 0------ 0----------|
A|---------------- 2--------------|--------------------------------|
E| 2---------- 2------------------| 0---------- 0------------------|
http://classicalguitartablature.blogspot.com/
E|-- 8-- 7-- 5-- 5------ 7--------|------------ 7------------------|
B|------ 6-- 6-- 3------ 3---- 8--|---- 8----------10---- 8--------|
G|-- 5------ 5-- 4-- 4-- 4--------|---- 9-------------- 9----------|
D|--------------------------------|----10--------------------------|
A| 5---------- 5------------------|--------------------------------|
E|---------------- 3--------------| 8-------------- 8--------------|
http://classicalguitartablature.blogspot.com/
E|---------------------------- 7--| 7-- 5--------------------------|
B| 7-- 8--10-- 8------------------| 5---- 8---- 8------------------|
G| 7-- 7------------------ 7------| 5-- 5------ 5---------- 7-- 7--|
D| 7-- 9------ 9------ 9----------|------ 5---- 5------ 5----------|
A|--------------------------------| 0---------- 0------------------|
E| 0---------- 0------------------|--------------------------------|
http://classicalguitartablature.blogspot.com/
E| 7-- 8 7-- 5--------------------|---- 2--------------------------|
B|------ 5-------------------- 5--|---- 0--------------------------|
G|---- 5 5------------ 7----------|-- 2----------------------------|
D|--------------------------------|-- 0----------------------------|
A|---- 5-- 5----------------------|--------------------------------|
E|------------------------------ 3|--------------------------------|
http://classicalguitartablature.blogspot.com/
E|--------------------------------|--------------------------------|
B|--------------------------------|--------------------------------|
G|--------------------------------|--------------------------------|
D|--------------------------------|--------------------------------|
A|--------------------------------|--------------------------------|
E|--------------------------------|--------------------------------|
http://classicalguitartablature.blogspot.com/

0 ความคิดเห็น:

แสดงความคิดเห็น