To celebrate the anniversary, I am giving you (finally...) : iPhone LickByNeck !!!!!!

Paparazzi (BASIC)

Lady Gaga's tune fingerstyle chord melody guitar BASIC arrangement played in the key of Am.

Paparazzi-Lady Gaga-BASIC ARRANGEMENT played in the key of Am.
http://classicalguitartablature.blogspot.com/
E|--------------------------------|--------------------------------|
B| 1---------- 1------------------| 1---------- 1------------------|
G| 2---------- 2------------------| 2---------- 2------------------|
D| 3---------- 3------------------| 3---------- 3------------------|
A| 0---------- 0---------------- 0| 0---------- 0------------------|
E|--------------------------------|--------------------------------|
http://classicalguitartablature.blogspot.com/
E|-------- 5----------------------|------ 5------------------------|
B|--------------------------------|--------------------------------|
G| 2-- 2------ 2------------------| 2-- 2------ 2------------------|
D| 2-- 2------ 2---------------- 2|---- 2------ 2------------------|
A| 0---- 0 0-- 0-------------- 0--| 0-- 0-- 0-- 0-------------- 0--|
E|--------------------------------|--------------------------------|
http://classicalguitartablature.blogspot.com/
http://classicalguitartablature.blogspot.com/
E| 0---- 0------------------------| 0-- 0--------------------------|
B| 1---- 1---------------------- 1|---- 1--------------------------|
G| 2---- 2---- 2------------ 2-- 2|------------ 2-------------- 2--|
D|------------ 2------------ 2----|------------ 2-------------- 2--|
A| 0---------- 0-------------- 0--| 0---------- 0-------------- 0--|
E|--------------------------------|--------------------------------|
http://classicalguitartablature.blogspot.com/
E| 0---- 0------------------------| 0-- 1-- 3-- 1------ 0----------|
B| 1---- 1------------------------| 1-- 1-- 1-- 1-------------- 1--|
G| 2---- 2---- 2-------------- 2--| 2-- 2-- 2-- 2---------- 2------|
D|------------ 2-------------- 2--|--------------------------------|
A| 0---------- 0-------------- 0--| 0-------------- 0--------------|
E|--------------------------------|--------------------------------|
http://classicalguitartablature.blogspot.com/
E|--------------------------------| 0------------------------------|
B| 0---- 1---------------- 1------| 1------ 1------ 0--------------|
G| 2---- 2---- 2-------------- 2--| 2------ 2---- 2------ 2--------|
D| 3---- 3---- 3------ 3----------|---- 3------ 3------ 3------ 3--|
A| 0---------- 0------------------| 0-------------- 0--------------|
E|--------------------------------|--------------------------------|
http://classicalguitartablature.blogspot.com/
E|--------------------------------|-------- 5-------- 5------------|
B| 0---- 1---------------- 1------|---------------- 5--------------|
G| 2---- 2---- 2-------------- 2--| 2-- 2------ 2---------- 2------|
D| 3---- 3---- 3------ 3----------| 3-- 3--------------------------|
A| 0---------- 0------------------| 0-------------- 0---------- 0--|
E|--------------------------------|--------------------------------|
http://classicalguitartablature.blogspot.com/
E| 0---- 0------------------------| 0-- 0--------------------------|
B| 1---- 1---------------------- 1|---- 1--------------------------|
G| 2---- 2---- 2------------ 2-- 2|------------ 2-------------- 2--|
D|------------ 2------------ 2----|------------ 2-------------- 2--|
A| 0---------- 0-------------- 0--| 0---------- 0-------------- 0--|
E|--------------------------------|--------------------------------|
http://classicalguitartablature.blogspot.com/
E| 0---- 0------------------------| 0-- 1-- 3-- 1------ 0----------|
B| 1---- 1------------------------| 1-- 1-- 1-- 1-------------- 1--|
G| 2---- 2---- 2-------------- 2--| 2-- 2-- 2-- 2---------- 2------|
D|------------ 2-------------- 2--|--------------------------------|
A| 0---------- 0-------------- 0--| 0-------------- 0--------------|
E|--------------------------------|--------------------------------|
http://classicalguitartablature.blogspot.com/
E|--------------------------------|--------------------------------|
B| 0---- 1---------------- 1------| 3------ 1------ 0--------------|
G| 2---- 2---- 2-------------- 2--| 2------ 2------ 2---- 2------ 4|
D| 3---- 3---- 3------ 3----------|---- 3------ 3------ 3------ 3--|
A| 0---------- 0------------------| 0-------------- 0--------------|
E|--------------------------------|--------------------------------|
http://classicalguitartablature.blogspot.com/
E|--------------------------------|------------ 3------------------|
B|---------------------------- 5 5| 5-- 3-- 5-- 5-- 5--------------|
G|------ 5------------------------| 5-- 5-- 5------ 5--------------|
D| 7---- 7---- 7------ 7----------| 3-- 3-- 3------ 3--------------|
A| 5---------- 5------------------| 5------------------------------|
E|--------------------------------|--------------------------------|
http://classicalguitartablature.blogspot.com/
E| 1-- 1-- 1-- 1-- 1------ 3-- 0--|-------- 0------ 0------ 1-- 5--|
B| 1-- 1------ 1-- 1------ 1-- 1--|---- 3-- 3-- 3-- 3------ 3-- 6--|
G| 2-- 2-- 2------ 2------ 2-- 0--|---- 0-- 0-- 0-- 0------ 0------|
D|--------------------------------|---- 2--------------------------|
A|--------------------------------| 3---------- 3------------------|
E| 1---------- 1------------------|--------------------------------|
http://classicalguitartablature.blogspot.com/
E|--------------------------------|------------ 5------------------|
B|---- 6------------ 5------------| 3-- 5------ 3---- 6------------|
G|---- 7---------- 7--------------| 3-- 3-------------- 3----------|
D|---- 7--------------------------| 3-- 3-------------- 3----------|
A| 5---------- 5-- 5---------- 5--|--------------------------------|
E|--------------------------------| 6---------- 6-------------- 6--|
http://classicalguitartablature.blogspot.com/
E| 1-- 1-- 1-- 1-- 1------ 3-- 0--|-------- 0------ 0------ 1-- 5--|
B| 1-- 1------ 1-- 1------ 1-- 1--|---- 3-- 3-- 3-- 3------ 3-- 6--|
G| 2-- 2-- 2------ 2------ 2-- 0--|---- 0-- 0-- 0-- 0------ 0------|
D|--------------------------------|---- 2--------------------------|
A|--------------------------------| 3---------- 3------------------|
E| 1---------- 1------------------|--------------------------------|
http://classicalguitartablature.blogspot.com/
E|--------------------------------|------------ 5---------------- 8|
B|---- 6------------ 5------------| 3-- 5------ 3---- 6----------10|
G|---- 7---------- 7--------------| 3-- 3-------------- 3--------10|
D|---- 7--------------------------| 3-- 3-------------- 3----------|
A| 5---------- 5-- 5---------- 5--|--------------------------------|
E|--------------------------------| 6---------- 6-------------- 6--|
http://classicalguitartablature.blogspot.com/
E|---------------------------- 0--|--------------------------------|
B|--10--11------10-- 8-------- 1--|------------ 1-- 1-- 1-- 1-- 1--|
G|--10--10------10----10------ 0--|---- 0------ 0-- 0-- 0------ 0--|
D|--10----------10----10----------|---- 2---------- 2-- 2----------|
A| 8-------- 8--------------------| 3-------------- 3--------------|
E|--------------------------------|--------------------------------|
http://classicalguitartablature.blogspot.com/
E| 8------ 6------ 5--------------|--------------------------------|
B| 6---- 6-------- 6-- 8------ 3--|--------------------------------|
G| 5-------------- 5-- 5------ 3--|---- 3-------------- 3----------|
D|---- 7-------------- 7------ 3--|---- 3-------------- 3----------|
A| 5---------- 5------------------| 1---------- 1-- 1---------- 1--|
E|--------------------------------|--------------------------------|
http://classicalguitartablature.blogspot.com/
E| 1-- 1-- 1-- 1-- 1------ 3-- 0--|-------- 0------ 0------ 1-- 5--|
B| 1-- 1------ 1-- 1------ 1-- 1--|---- 3-- 3-- 3-- 3------ 3-- 6--|
G| 2-- 2-- 2------ 2------ 2-- 0--|---- 0-- 0-- 0-- 0------ 0------|
D|--------------------------------|---- 2--------------------------|
A|--------------------------------| 3---------- 3------------------|
E| 1---------- 1------------------|--------------------------------|
http://classicalguitartablature.blogspot.com/
E|--------------------------------|------------ 5------------------|
B|---- 6------------ 5------------| 3-- 5------ 3---- 6------------|
G|---- 7---------- 7--------------| 3-- 3-------------- 3----------|
D|---- 7--------------------------| 3-- 3-------------- 3----------|
A| 5---------- 5-- 5---------- 5--|--------------------------------|
E|--------------------------------| 6---------- 6-------------- 6--|
http://classicalguitartablature.blogspot.com/
E|-------- 5----------------------|------ 5------------------------|
B|--------------------------------|--------------------------------|
G| 2-- 2------ 2------------------| 2-- 2------ 2------------------|
D| 2-- 2------ 2---------------- 2|---- 2------ 2------------------|
A| 0---- 0 0-- 0-------------- 0--| 0-- 0-- 0-- 0-------------- 0--|
E|--------------------------------|--------------------------------|
http://classicalguitartablature.blogspot.com/
E|-------- 5----------------------|------ 5------------------------|
B|--------------------------------|--------------------------------|
G| 2-- 2------ 2------------------| 2-- 2------ 2---------------- 2|
D| 2-- 2------ 2---------------- 2|---- 2------ 2---------------- 2|
A| 0---- 0 0-- 0-------------- 0--| 0-- 0-- 0-- 0-------------- 0--|
E|--------------------------------|--------------------------------|
http://classicalguitartablature.blogspot.com/
E|--------------------------------|--------------------------------|
B|--------------------------------|--------------------------------|
G|--------------------------------|--------------------------------|
D|--------------------------------|--------------------------------|
A| 0------------------------------|--------------------------------|
E|--------------------------------|--------------------------------|
http://classicalguitartablature.blogspot.com/

0 ความคิดเห็น:

แสดงความคิดเห็น