To celebrate the anniversary, I am giving you (finally...) : iPhone LickByNeck !!!!!!

The Way You Make Me Feel (BASIC)

Michael Jackson's tune fingerstyle chord melody guitar BASIC arrangement played in the key of E.

The Way You Make Me Feel-Michael Jackson-BASIC ARRANGEMENT played in the key of E.
http://classicalguitartablature.blogspot.com/
E|--------------------------------|--------------------------------|
B| 5-------------- 5--------------| 5-------------- 5--------------|
G| 7-------------- 7--------------| 7-------------- 7--------------|
D| 6-------------- 6--------------| 6-------------- 6--------------|
A|---------- 7-------------- 7----|---------- 7-------------- 7----|
E| 0-- 0-- 7-- 0-- 0-- 0-- 7 0----| 0---- 0 7-- 0-- 0-- 0-- 7-- 0--|
http://classicalguitartablature.blogspot.com/
E|--------------------------------|--------------------------------|
B| 5-------------- 5------------ 5|-------------- 5----------------|
G| 7-------------- 7------------ 7|-------------- 7----------------|
D| 6-------------- 6--------------| 6------------ 6----------------|
A|---------- 7-------------- 7----|---------- 7------------ 7------|
E| 0---- 0 7-- 0-- 0-- 0-- 7-- 0--| 0-- 0 7---- 0-- 0-- 0 7---- 0--|
http://classicalguitartablature.blogspot.com/
http://classicalguitartablature.blogspot.com/
E|---- 4 4------ 2---- 2------ 2--| 4------ 4-- 2------ 2----------|
B|---- 3-- 3-- 5 3---- 3-- 5-- 3--| 3------ 3-- 3------ 3----------|
G|------ 4 4-- 4-- 4-- 4-- 4-- 4--| 4------ 4-- 4------ 4---- 4----|
D|------------ 2---------- 2------|-------------------------- 2----|
A|--------------------------------|--------------------------------|
E| 0-- 0-- 0-- 0-- 0-- 0-- 0-- 0--| 0-- 0-- 0---- 0-------- 0-- 0--|
http://classicalguitartablature.blogspot.com/
E|---- 4-- 4------ 2-- 2------ 2--| 4------ 4-- 5------ 7-- 7------|
B|---- 3-- 3-- 5-- 3---- 3 5-- 3--| 3------ 3-- 3------ 5-- 5------|
G|---- 4-- 4-- 4-- 4-- 4-- 4---- 4| 4------ 4-- 4-------- 7 7------|
D|------------ 2---------- 2------|--------------------------------|
A|--------------------------------|--------------------------------|
E| 0-- 0-- 0---- 0 0---- 0 0---- 0| 0------ 0---- 0 0---- 0---- 0--|
http://classicalguitartablature.blogspot.com/
E|---- 4 4------ 2---- 2------ 2--| 4------ 4-- 2------ 2----------|
B|---- 3-- 3-- 5 3---- 3-- 5-- 3--| 3------ 3-- 3------ 3----------|
G|------ 4 4-- 4-- 4-- 4-- 4-- 4--| 4------ 4-- 4------ 4---- 4----|
D|------------ 2---------- 2------|-------------------------- 2----|
A|--------------------------------|--------------------------------|
E| 0-- 0-- 0-- 0-- 0-- 0-- 0-- 0--| 0-- 0-- 0---- 0-------- 0-- 0--|
http://classicalguitartablature.blogspot.com/
E|---- 4-- 4------ 2-- 2------ 2--| 4------ 4-- 5------ 7-- 7------|
B|---- 3-- 3-- 5-- 3---- 3 5-- 3--| 3------ 3-- 3------ 5-- 5------|
G|---- 4-- 4-- 4-- 4-- 4-- 4---- 4| 4------ 4-- 4-------- 7 7------|
D|------------ 2---------- 2------|--------------------------------|
A|--------------------------------|--------------------------------|
E| 0-- 0-- 0---- 0 0---- 0 0---- 0| 0------ 0---- 0 0---- 0---- 0--|
http://classicalguitartablature.blogspot.com/
E|---- 5-- 5-- 5------------------| 5---- 5------------------------|
B|---- 5-- 5-- 5-- 8-- 8-- 5-- 8--| 5------ 5-- 8------ 8---- 8----|
G|---- 6-- 6-- 6-- 6-- 6-- 6-- 6--| 6------ 6-- 6------ 6---- 6----|
D|-------------------- 5-- 5-- 5--|------------ 5------ 5---- 5----|
A| 0-- 0-- 0-- 0-- 0-- 0-- 0-- 0--| 0-- 0-- 0-- 0-- 0------ 0-- 0 0|
E|--------------------------------|--------------------------------|
http://classicalguitartablature.blogspot.com/
E|---- 5-- 5-- 5------------------| 5---- 5-- 5---- 9-- 7---- 9----|
B|---- 5-- 5-- 5 8---- 8-- 5-- 8--| 5---- 5-- 5---- 9---- 9-- 9----|
G|---- 6-- 6-- 6-- 6-- 6-- 6-- 6--| 6---- 6-- 6---- 8-- 8---- 8----|
D|---------------- 5-- 5-- 5-- 5--|--------------------------------|
A|---- 0-- 0-- 0-- 0-- 0-- 0-- 0--| 0------ 0-- 0------------------|
E|--------------------------------|---------------- 7------ 7-- 7--|
http://classicalguitartablature.blogspot.com/
E|---- 4 4------ 2---- 2------ 2--| 4------ 4-- 2------ 2----------|
B|---- 3-- 3-- 5 3---- 3-- 5-- 3--| 3------ 3-- 3------ 3----------|
G|------ 4 4-- 4-- 4-- 4-- 4-- 4--| 4------ 4-- 4------ 4---- 4----|
D|------------ 2---------- 2------|-------------------------- 2----|
A|--------------------------------|--------------------------------|
E| 0-- 0-- 0-- 0-- 0-- 0-- 0-- 0--| 0-- 0-- 0---- 0-------- 0-- 0 0|
http://classicalguitartablature.blogspot.com/
E|---- 4 4------ 2---- 2------ 2 4|---- 4-- 4-- 4-- 5------ 7-- 7--|
B|---- 3 3---- 5 3---- 3 5---- 3--| 3-- 3-- 3-- 3-- 2------ 5-- 9--|
G|---- 4-- 4-- 4 4---- 4 4---- 4--| 4-- 4-- 4-- 4-- 2------ 7-- 7--|
D|------------ 2-------- 2--------|---- 2-- 2------ 4------ 6------|
A|--------------------------------|--------------------------------|
E|---- 0-- 0-- 0-- 0-- 0 0---- 0--| 0------------------------------|
http://classicalguitartablature.blogspot.com/
E|--------------------------------|------------------------ 7-- 7--|
B|---- 9---- 9----10------10-- 9--|---- 9-- 9-- 9--10------10-- 9--|
G|---- 7---- 7---- 7------ 7-- 7--|---- 7-- 7-- 7-- 7------ 7-- 7--|
D|---- 9---- 9---- 9------ 9-- 9--|---- 9-- 9-- 9-- 9--------------|
A|--------------------------------|--------------------------------|
E| 0------ 0---- 0 0------ 0------| 0------ 0------ 0------ 0------|
http://classicalguitartablature.blogspot.com/
E|--------------------------------|------------------------ 7-- 7--|
B|---- 9---- 9--10--------10-- 9--|---- 9-- 9----10---- 9 9---- 9--|
G|---- 7---- 7-- 7-------- 7-- 7--|---- 7---- 7-- 7---- 7-- 7-- 7--|
D|---- 9---- 9---- 9------ 9-- 9--|---- 9---- 9-- 9---- 9----------|
A|---------------------------- 7--|--------------------------------|
E| 0---- 0---- 0-- 0------ 0------| 0---- 0---- 0-- 0-- 0-- 0------|
http://classicalguitartablature.blogspot.com/
E|--------------------------------|------------------------ 7-- 7--|
B|---- 9---- 9----10------10-- 9--|---- 9-- 9-- 9--10------10-- 9--|
G|---- 7---- 7---- 7------ 7-- 7--|---- 7-- 7-- 7-- 7------ 7-- 7--|
D|---- 9---- 9---- 9------ 9-- 9--|---- 9-- 9-- 9-- 9--------------|
A|--------------------------------|--------------------------------|
E| 0------ 0---- 0 0------ 0------| 0------ 0------ 0------ 0------|
http://classicalguitartablature.blogspot.com/
E|--------------------------------|--------------------------------|
B|---- 9---- 9--10--------10-- 9--|--------------------------------|
G|---- 7---- 7-- 7-------- 7-- 7--|--------------------------------|
D|---- 9---- 9-- 9-------- 9-- 9--|--------------------------------|
A|---------------------------- 7--|--------------------------------|
E| 0------ 0-- 0-- 0------ 0-- 0--|---- 0 012----1110 9 8 7 5 4----|
http://classicalguitartablature.blogspot.com/
E|-------------------------- 0----|---------------- 3-- 3 2--------|
B|---- 8---- 8-- 8---- 8-- 7------| 5-- 2---- 2---- 3-- 3 2-- 5 2--|
G|---- 7---- 7-- 7---- 7 7---- 6--| 2-- 2---- 2---- 3-- 3-- 2------|
D|---- 6---- 6-- 6---- 6----------| 2---- 2-- 2--------------------|
A|---------------- 5------ 5------| 4------ 4-- 4-- 3------ 2------|
E| 0------ 0-- 0------------------|--------------------------------|
http://classicalguitartablature.blogspot.com/
E| 0------------------------ 0----|---------------- 3-- 3 2--------|
B| 0-- 2---- 2-- 8---- 8-- 7------| 5-- 2---- 2---- 3-- 3 2-- 5 2--|
G| 1-- 1---- 1-- 7---- 7 7---- 6--| 2-- 2---- 2---- 3-- 3-- 2------|
D|---- 0---- 0-- 6---- 6----------| 2---- 2-- 2--------------------|
A|---------------- 5------ 5------| 4------ 4-- 4-- 3------ 2------|
E| 0------ 0-- 0------------------|--------------------------------|
http://classicalguitartablature.blogspot.com/
E| 0------------------------ 0----|---------------- 3-- 3 2--------|
B| 0-- 2---- 2-- 8---- 8-- 7------| 5-- 2---- 2---- 3-- 3 2-- 5 2--|
G| 1-- 1---- 1-- 7---- 7 7---- 6--| 2-- 2---- 2---- 3-- 3-- 2------|
D|---- 0---- 0-- 6---- 6----------| 2---- 2-- 2--------------------|
A|---------------- 5------ 5------| 4------ 4-- 4-- 3------ 2------|
E| 0------ 0-- 0------------------|--------------------------------|
http://classicalguitartablature.blogspot.com/
E| 0------------------------ 0----|---------------- 3-- 3 2--------|
B| 0-- 2---- 2-- 8---- 8-- 7------| 5-- 2---- 2---- 3-- 3 2-- 5 2--|
G| 1-- 1---- 1-- 7---- 7 7---- 6--| 2---- 2-- 2---- 3-- 3-- 2------|
D|---- 0---- 0-- 6---- 6----------| 2---- 2-- 2--------------------|
A|---------------- 5------ 5------| 4------ 4-- 4-- 3------ 2------|
E| 0------ 0-- 0------------------|--------------------------------|
http://classicalguitartablature.blogspot.com/
E|--------------------------------|--------------------------------|
B| 5-------------- 5--------------| 5-------------- 5------------ 5|
G| 7-------------- 7--------------| 7-------------- 7------------ 7|
D| 6-------------- 6--------------| 6-------------- 6--------------|
A|---------- 7-------------- 7----|---------- 7-------------- 7----|
E| 0---- 0 7-- 0-- 0-- 0-- 7-- 0--| 0---- 0 7-- 0-- 0-- 0-- 7-- 0--|
http://classicalguitartablature.blogspot.com/
E|--------------------------------|--------------------------------|
B|-------------- 5-------------- 8|--------------------------------|
G|-------------- 7-------------- 7|--------------------------------|
D| 6------------ 6----------------| 6------------------------------|
A|---------- 7------------ 7------|--------------------------------|
E| 0-- 0 7---- 0-- 0-- 0 7---- 0--| 0------------------------------|
http://classicalguitartablature.blogspot.com/

0 ความคิดเห็น:

แสดงความคิดเห็น