To celebrate the anniversary, I am giving you (finally...) : iPhone LickByNeck !!!!!!

Ticket To Ride (BASIC)

Beatles' tune fingerstyle chord melody guitar BASIC arrangement played in the key of G.

Ticket To Ride-Beatles- BASIC ARRANGEMENT played in the key of G.
http://classicalguitartablature.blogspot.com/
E|--------------------------------|--------------------------------|
B|------ 3---- 0------------ 3----|-------- 3-- 0------------ 3----|
G| 0------------ 0---- 2-------- 0|---------------- 0-- 2-------- 0|
D|--------------------------------|--------------------------------|
A|--------------------------------|--------------------------------|
E|--------------------------------|--------------------------------|
http://classicalguitartablature.blogspot.com/
E|--------------------------------|--------------------------------|
B|-------- 3 0---------------- 3--|-------- 3-- 0-------------- 3--|
G|---------------- 0-- 2----------| 0-------------- 0-- 2----------|
D|--------------------------------|--------------------------------|
A|--------------------------------|--------------------------------|
E| 3---------- 3------------------| 3---------- 3------------------|
http://classicalguitartablature.blogspot.com/
http://classicalguitartablature.blogspot.com/
E|--------------------------------|--------------------------------|
B|------ 0------ 1-- 0------------|---------------- 1-- 0-- 1-- 3--|
G| 0---------------------- 0------|-------- 0----------------------|
D|-------------------------- 0----|------------ 0------------------|
A|--------------------------------|--------------------------------|
E| 3-------- 3--------------------| 3---------- 3------------------|
http://classicalguitartablature.blogspot.com/
E|--------------------------------|------------------------------ 1|
B|-------- 3-- 0------------ 3----|-------- 3-- 0------------ 3----|
G|-------- 0------ 0-- 2----------| 0---------- 0-- 0-- 2----------|
D|-------- 0----------------------| 0------------------------------|
A|--------------------------------|--------------------------------|
E| 3---------- 3------------------| 3---------- 3---------------- 3|
http://classicalguitartablature.blogspot.com/
E|------ 1------------------------|--------------------------------|
B|-------------- 3-- 1---- 3-- 3--|-- 1-- 0---- 0-- 1-- 0-- 1-- 3--|
G|--------------------------------|------------ 0------------------|
D|--------------------------------|------------ 0------------------|
A|--------------------------------|--------------------------------|
E|---------- 3--------------------| 3---------- 3------------------|
http://classicalguitartablature.blogspot.com/
E|--------------------------------|--------------------------------|
B|--------------------------------| 3------------------------------|
G|-------- 5-------------- 5------| 5------ 5-------------- 5------|
D|-------- 5---------- 5------ 5--| 4------ 4---------- 4------ 4--|
A|--------------------------------| 5---------- 5------------------|
E| 5---------- 5------------------|--------------------------------|
http://classicalguitartablature.blogspot.com/
E|---------------------------- 0--|--------------------------------|
B| 0------ 3-- 0-- 3-- 3-- 3-- 1--|------------------------ 1------|
G| 0------ 0-- 0-- 0-- 0-- 0-- 3--|------------ 3-------------- 3--|
D| 2------ 2-- 2-- 2-- 2-- 2------|-------- 2---------- 2----------|
A|--------------------------------| 3-------------- 3--------------|
E| 0---------- 0------------------|--------------------------------|
http://classicalguitartablature.blogspot.com/
E|---------------------------- 0--|--------------------------------|
B| 0------ 3-- 0-- 3-- 3-- 3-- 0--|---- 3------ 0------------------|
G| 0------ 0-- 0-- 0-- 0-- 0-- 2--|---- 2------------------ 2------|
D| 2---------- 2-- 2-- 2-- 2------|---- 2-------------- 2----------|
A|--------------------------------|--------------------------------|
E| 0-------------- 0--------------| 1------------------------------|
http://classicalguitartablature.blogspot.com/
E|--------------------------------|--------------------------------|
B| 0------ 3-- 0-- 3-- 3-- 3-- 6--|------------ 6-- 3-- 3------ 3--|
G| 0------ 0-- 0-- 0-- 0-- 0-- 5--|------ 5-------- 5-- 5----------|
D|---- 2------ 2-- 2-- 2-- 2-- 4--|---- 4---------- 4-- 4----------|
A|--------------------------------| 5------------------------------|
E| 0-------------- 0--------------|---------------- 4--------------|
http://classicalguitartablature.blogspot.com/
E|--------------------------------|--------------------------------|
B|---- 1 0 3-- 0-------------- 3--|-------- 3-- 0------------ 3----|
G|---------------- 0---- 2--------| 0-------------- 0-- 2----------|
D|--------------------------------| 0------------------ 0----------|
A|--------------------------------|--------------------------------|
E| 3------------ 3----------------| 3---------- 3------------------|
http://classicalguitartablature.blogspot.com/
E|--------------------------------|--------------------------------|
B|------ 0------ 1-- 0------------|---------------- 1-- 0-- 1-- 3--|
G| 0---------------------- 0------|-------- 0----------------------|
D|-------------------------- 0----|------------ 0------------------|
A|--------------------------------|--------------------------------|
E| 3-------- 3--------------------| 3---------- 3------------------|
http://classicalguitartablature.blogspot.com/
E|--------------------------------|------------------------------ 1|
B|-------- 3-- 0------------ 3----|-------- 3-- 0------------ 3----|
G|-------- 0------ 0-- 2----------| 0---------- 0-- 0-- 2----------|
D|-------- 0----------------------| 0------------------------------|
A|--------------------------------|--------------------------------|
E| 3---------- 3------------------| 3---------- 3---------------- 3|
http://classicalguitartablature.blogspot.com/
E|------ 1------------------------|--------------------------------|
B|-------------- 3-- 1---- 3-- 3--|-- 1-- 0---- 0-- 1-- 0-- 1-- 3--|
G|--------------------------------|------------ 0------------------|
D|--------------------------------|------------ 0------------------|
A|--------------------------------|--------------------------------|
E|---------- 3--------------------| 3---------- 3------------------|
http://classicalguitartablature.blogspot.com/
E|--------------------------------|--------------------------------|
B|--------------------------------| 3------------------------------|
G|-------- 5-------------- 5------| 5------ 5-------------- 5------|
D|-------- 5---------- 5------ 5--| 4------ 4---------- 4------ 4--|
A|--------------------------------| 5---------- 5------------------|
E| 5---------- 5------------------|--------------------------------|
http://classicalguitartablature.blogspot.com/
E|---------------------------- 0--|--------------------------------|
B| 0------ 3-- 0-- 3-- 3-- 3-- 1--|------------------------ 1------|
G| 0------ 0-- 0-- 0-- 0-- 0-- 3--|------------ 3-------------- 3--|
D| 2------ 2-- 2-- 2-- 2-- 2------|-------- 2---------- 2----------|
A|--------------------------------| 3-------------- 3--------------|
E| 0---------- 0------------------|--------------------------------|
http://classicalguitartablature.blogspot.com/
E|---------------------------- 0--|--------------------------------|
B| 0------ 3-- 0-- 3-- 3-- 3-- 0--|---- 3------ 0------------------|
G| 0------ 0-- 0-- 0-- 0-- 0-- 2--|---- 2------------------ 2------|
D| 2---------- 2-- 2-- 2-- 2------|---- 2-------------- 2----------|
A|--------------------------------|--------------------------------|
E| 0-------------- 0--------------| 1------------------------------|
http://classicalguitartablature.blogspot.com/
E|--------------------------------|--------------------------------|
B| 0------ 3-- 0-- 3-- 3-- 3-- 6--|------------ 6-- 3-- 3------ 3--|
G| 0------ 0-- 0-- 0-- 0-- 0-- 5--|------ 5-------- 5-- 5----------|
D|---- 2------ 2-- 2-- 2-- 2-- 4--|---- 4---------- 4-- 4----------|
A|--------------------------------| 5------------------------------|
E| 0-------------- 0--------------|---------------- 4--------------|
http://classicalguitartablature.blogspot.com/
E|--------------------------------|--------------------------------|
B|---- 1 0 3-- 0-------------- 3--|-------- 3-- 0------------ 3----|
G|---------------- 0---- 2--------| 0-------------- 0-- 2----------|
D|--------------------------------| 0------------------ 0----------|
A|--------------------------------|--------------------------------|
E| 3------------ 3----------------| 3---------- 3------------------|
http://classicalguitartablature.blogspot.com/
E|--------------------------------|--------------------------------|
B| 1------ 1------ 1-- 1-- 1-- 1--|-------------------------- 1----|
G| 3-- 3------ 3-- 3-- 3-- 3-- 3--|---- 3------ 3---------- 3-- 3--|
D| 2-------------- 2-- 2-- 2-- 2--|-------- 2---------- 2----------|
A| 3------------------------------| 3------------------------------|
E|---------------- 3--------------|---------------- 3--------------|
http://classicalguitartablature.blogspot.com/
E|--------------------------------|--------------------------------|
B| 1---------- 1-- 1-- 1-- 1-- 3--|------------------------ 3------|
G|---- 3---- 3-- 3---- 3-- 3------|-------- 5------------------ 5--|
D|------ 2---------------- 2------|---- 4------ 4------ 4----------|
A| 3---------------------------- 5|--------------------------------|
E|---------------- 3--------------|---------------- 5--------------|
http://classicalguitartablature.blogspot.com/
E|--------------------------------|--------------------------------|
B| 1------ 1------ 1-- 1-- 1-- 1--|-------------------------- 1----|
G| 3-- 3------ 3-- 3-- 3-- 3-- 3--|---- 3------ 3---------- 3-- 3--|
D| 2-------------- 2-- 2-- 2-- 2--|-------- 2---------- 2----------|
A| 3------------------------------| 3------------------------------|
E|---------------- 3--------------|---------------- 3--------------|
http://classicalguitartablature.blogspot.com/
E|--------------------------------|--------------------------------|
B| 1---------- 1-- 1-- 1-- 1-- 3--|--------------------------------|
G|---- 3---- 3-- 3---- 3-- 3-- 5--|---------------- 2-- 0----------|
D|------ 2---------------- 2-- 4--|------------------------ 3-- 0--|
A| 3------------------------------| 5-------------- 5--------------|
E|---------------- 3--------------|--------------------------------|
http://classicalguitartablature.blogspot.com/
E|--------------------------------|--------------------------------|
B|---------------- 5-- 3------ 3--|------ 0------ 1-- 0------------|
G| 0------ 5-- 2---------- 5------| 0---------------------- 0------|
D|--------------------------------|-------------------------- 0----|
A| 5-------------- 5---------- 5--|--------------------------------|
E|--------------------------------| 3-------- 3--------------------|
http://classicalguitartablature.blogspot.com/
E|--------------------------------|--------------------------------|
B|---------------- 1-- 0-- 1-- 3--|-------- 3-- 0------------ 3----|
G|-------- 0----------------------|-------- 0------ 0-- 2----------|
D|------------ 0------------------|-------- 0----------------------|
A|--------------------------------|--------------------------------|
E| 3---------- 3------------------| 3---------- 3------------------|
http://classicalguitartablature.blogspot.com/
E|------------------------------ 1|------ 1------------------------|
B|-------- 3-- 0------------ 3----|-------------- 3-- 1---- 3-- 3--|
G| 0---------- 0-- 0-- 2----------|--------------------------------|
D| 0------------------------------|--------------------------------|
A|--------------------------------|--------------------------------|
E| 3---------- 3---------------- 3|---------- 3--------------------|
http://classicalguitartablature.blogspot.com/
E|--------------------------------|--------------------------------|
B|-- 1-- 0---- 0-- 1-- 0-- 1-- 3--|--------------------------------|
G|------------ 0------------------|-------- 5-------------- 5------|
D|------------ 0------------------|-------- 5---------- 5------ 5--|
A|--------------------------------|--------------------------------|
E| 3---------- 3------------------| 5---------- 5------------------|
http://classicalguitartablature.blogspot.com/
E|--------------------------------|---------------------------- 0--|
B| 3------------------------------| 0------ 3-- 0-- 3-- 3-- 3-- 1--|
G| 5------ 5-------------- 5------| 0------ 0-- 0-- 0-- 0-- 0-- 3--|
D| 4------ 4---------- 4------ 4--| 2------ 2-- 2-- 2-- 2-- 2------|
A| 5---------- 5------------------|--------------------------------|
E|--------------------------------| 0---------- 0------------------|
http://classicalguitartablature.blogspot.com/
E|--------------------------------|---------------------------- 0--|
B|------------------------ 1------| 0------ 3-- 0-- 3-- 3-- 3-- 0--|
G|------------ 3-------------- 3--| 0------ 0-- 0-- 0-- 0-- 0-- 2--|
D|-------- 2---------- 2----------| 2---------- 2-- 2-- 2-- 2------|
A| 3-------------- 3--------------|--------------------------------|
E|--------------------------------| 0-------------- 0--------------|
http://classicalguitartablature.blogspot.com/
E|--------------------------------|--------------------------------|
B|---- 3------ 0------------------| 0------ 3-- 0-- 3-- 3-- 3-- 6--|
G|---- 2------------------ 2------| 0------ 0-- 0-- 0-- 0-- 0-- 5--|
D|---- 2-------------- 2----------|---- 2------ 2-- 2-- 2-- 2-- 4--|
A|--------------------------------|--------------------------------|
E| 1------------------------------| 0-------------- 0--------------|
http://classicalguitartablature.blogspot.com/
E|--------------------------------|--------------------------------|
B|------------ 6-- 3-- 3------ 3--|---- 1 0 3-- 0-------------- 3--|
G|------ 5-------- 5-- 5----------|---------------- 0---- 2--------|
D|---- 4---------- 4-- 4----------|--------------------------------|
A| 5------------------------------|--------------------------------|
E|---------------- 4--------------| 3------------ 3----------------|
http://classicalguitartablature.blogspot.com/
E|-------- 8---- 7----------------|--------------------------------|
B|------------------ 8------------| 0------------------------------|
G| 0-------------------- 7-- 5----| 0---------- 0------ 0------ 0--|
D| 0------------------------------|---- 3------ 3------ 3------ 3--|
A|--------------------------------|------ 5---------------- 5------|
E| 3------------------------------| 3-------------- 3--------------|
http://classicalguitartablature.blogspot.com/
E|--------------------------------|--------------------------------|
B|--------13------12--------------| 0------------------------------|
G|---- 0--------------12----------| 0---------- 0------ 0------ 0--|
D|---- 3------12----------12--10--|---- 3------ 3------ 3------ 3--|
A|----------------10--------------|-------- 5-------------- 5------|
E| 3------10--------------10------| 3-------------- 3--------------|
http://classicalguitartablature.blogspot.com/
E|--------------------------------|--------------------------------|
B|--------13------12--------------| 0------------------------------|
G|---- 0--------------12----------| 0---------- 0------ 0------ 0--|
D|---- 3------12----------12--10--|---- 3------ 3------ 3------ 3--|
A|----------------10--------------|-------- 5-------------- 5------|
E| 3------10--------------10------| 3-------------- 3--------------|
http://classicalguitartablature.blogspot.com/
E|--------------------------------|--------------------------------|
B|--------13------12--------------|-- 0----------------------------|
G|---- 0--------------12----------| 2------------------------------|
D|---- 3------12----------12--10--| 3------------------------------|
A|----------------10--------------|--------------------------------|
E| 3------10--------------10------| 3------------------------------|
http://classicalguitartablature.blogspot.com/

0 ความคิดเห็น:

แสดงความคิดเห็น