To celebrate the anniversary, I am giving you (finally...) : iPhone LickByNeck !!!!!!

Woman In Love (BASIC)

Barbra Streisand's tune fingerstyle chord melody guitar BASIC arrangement played in the key of Em.

Woman In Love-Barbra Streisand-BASIC ARRANGEMENT played In the key of Em.
http://classicalguitartablature.blogspot.com/
E|--------------------------------|--------------------------------|
B|---- 3 5 3-- 0-- 3-- 3-- 0-- 3--| 3 5 3-- 0-- 3-- 0--------------|
G|---- 2 4 2-- 0-- 4-- 2-- 0-- 2--| 2-- 2-- 0-- 2-- 0-- 2----------|
D|--------------------------------|-------------------- 2-- 0-- 4--|
A|--------------------------------|------------------------ 0-- 5--|
E| 0------------------------------|--------------------------------|
http://classicalguitartablature.blogspot.com/
E|--------------------------------|--------------------------------|
B|-------------------- 0----------|------------ 0-- 0-- 3----------|
G| 0------ 0------ 0---------- 0--|-------- 0------ 0-- 0----------|
D| 2-- 4------ 4---------- 2------|---- 2---------- 2-- 4----------|
A| 3------------------------------| 3-------------- 3-- 5----------|
E|--------------------------------|---------------------------- 0--|
http://classicalguitartablature.blogspot.com/
http://classicalguitartablature.blogspot.com/
E|--------------------------------|--------------------------------|
B|---- 3-- 3-- 0-- 3-- 3-- 5-- 3--| 0-- 3-- 0 3-- 0----------------|
G|---- 2-- 2-- 0-- 2-- 2-- 4-- 2--| 0-- 2-- 0 2-- 0-- 2-- 0---- 2--|
D|--------------------------------|------------------ 2---- 0-- 2--|
A|--------------------------------|---------------------------- 3--|
E|--------------------------------|--------------------------------|
http://classicalguitartablature.blogspot.com/
E|--------------------------------|--------------------------------|
B| 0-- 3-- 0----------------------|---- 0-- 3----------------------|
G| 0-- 2-- 0-- 2-- 0------ 0------|---- 0-- 2----------------------|
D|------------ 2-- 0-- 2-- 0------|--------------------------------|
A|--------------------------------|--------------------------------|
E|--------------------------------|--------------------------------|
http://classicalguitartablature.blogspot.com/
E|---- 7-- 7-- 7-- 5---------- 0--|-------- 0-- 3-- 2--------------|
B|---- 0-- 0-- 0-- 5-- 8-- 7------|---------------- 3------ 3-- 1--|
G|---- 0-- 0-- 0-- 5-- 5-- 5------|---- 0---------- 2-- 2----------|
D|-------------------- 5-- 5------|--------------------------------|
A|-------------- 0----------------|---------------- 0--------------|
E| 0------------------------------| 0------------------------------|
http://classicalguitartablature.blogspot.com/
E|---------- 0 0------ 0----------|--------------------------------|
B|---------------- 3-- 3-- 3------|------------ 0------------------|
G|-------- 0---------- 2-- 2-- 2 4|-------- 4-------------- 4------|
D|---- 2------------------ 4------|---- 0-------- 0---- 0------ 0--|
A| 3-------------- 5--------------|--------------------------------|
E|--------------------------------| 3-------------- 3--------------|
http://classicalguitartablature.blogspot.com/
E|-------------------- 5------ 0--|---------------- 0-- 2----------|
B|---- 6-- 6-- 6 6 6-- 6-- 8-- 1--|------------ 1-- 1-- 0------ 8--|
G|---- 5-- 5-- 5 5 5-- 5-- 5-- 0--|-------- 0------ 0-- 0------ 5--|
D|---- 7-- 7-- 7 7 7--------------|---- 2---------------------- 5--|
A| 5-------------- 0--------------| 3-------------- 3--------------|
E|--------------------------------|-------------------- 0----------|
http://classicalguitartablature.blogspot.com/
E|------------------ 7---- 5-- 2--|--------------------------------|
B|---- 8-- 8-- 8 8 8-- 8------ 4--|-------- 4---------- 4---- 4----|
G|---- 5-- 5-- 5 5 5-- 5-- 5-- 2--|-------- 2---- 2---- 2---- 4----|
D|---- 5-- 5-- 5 5 5--------------|---- 4------ 4------ 4---- 4----|
A| 0-------------- 0--------------| 2------------------ 2---- 6----|
E|--------------------------------|--------------------------------|
http://classicalguitartablature.blogspot.com/
E|---- 7-- 7-- 7-- 5---------- 0--|-------- 0-- 3-- 2--------------|
B|---- 0-- 0-- 0-- 5-- 8-- 7------|---------------- 3------ 3-- 1--|
G|---- 0-- 0-- 0-- 5-- 5-- 5------|---- 0---------- 2-- 2----------|
D|-------------------- 5-- 5------|--------------------------------|
A|-------------- 0----------------|---------------- 0--------------|
E| 0------------------------------| 0------------------------------|
http://classicalguitartablature.blogspot.com/
E|---------- 0 0------ 0----------|--------------------------------|
B|---------------- 3-- 3-- 3------|------------ 0------------------|
G|-------- 0---------- 2-- 2-- 2 4|-------- 4-------------- 4------|
D|---- 2------------------ 4------|---- 0-------- 0---- 0------ 0--|
A| 3-------------- 5--------------|--------------------------------|
E|--------------------------------| 3-------------- 3--------------|
http://classicalguitartablature.blogspot.com/
E|---- 5-- 5-- 5 5 5-- 7-- 8-- 7--|-------------------- 7-- 8-- 7--|
B|---- 6-- 6------ 6-- 6-- 6--10--|--10 8------ 8--10----------10--|
G|---- 5-- 5-- 5------ 5-- 5------|---------------- 9--------------|
D|--------------------------------|-- 9---- 9------10--------------|
A| 5-------------- 5--------------|10------------------------------|
E|--------------------------------|---------------- 8--------------|
http://classicalguitartablature.blogspot.com/
E|-------------------- 7-- 8-- 7--|--------------------------------|
B|--10 8------ 8--10---------- 7--|------------ 7-------------- 7--|
G|---------------- 9---------- 8--|-------- 8-------------- 8------|
D|-- 9---- 9------10--------------|---- 7-------- 7---- 7----------|
A|10------------------------------|--------------------------------|
E|---------------- 8--------------| 7-------------- 7--------------|
http://classicalguitartablature.blogspot.com/
E|--------------------------------|---- 0-- 0-- 0------ 0-- 2-- 3--|
B|--------------------------------|---- 0-- 0-- 0-- 4---------- 0--|
G| 8---------- 4-- 4------ 2------|---- 0-- 0-- 0-- 2---------- 0--|
D|---- 7------ 4------ 2---- 1----|---------------- 4--------------|
A|--------------------------------|---------------- 2--------------|
E| 7------ 5------ 3------ 2------| 0------------------------------|
http://classicalguitartablature.blogspot.com/
E|------------ 3 3 2-- 3-- 2-- 0--|---- 3-- 3-- 3-- 2 3-- 5---- 7--|
B|-------- 0------ 4-- 4-- 4------|---- 0-- 0-- 0-- 4 4-------- 0--|
G|---- 0---------- 2-- 2-- 2------|---- 0-- 0-- 0 2-- 2-------- 0--|
D|-------------- 4----------------|--------------------------------|
A|---------------- 2--------------|-------------- 2----------------|
E| 0------------------------------| 0------------------------------|
http://classicalguitartablature.blogspot.com/
E|---------- 7 7---- 7-- 8-- 7----|------ 7---- 7----10------------|
B|-------- 0----10-- 7-- 7---- 0--|----------10------ 7------------|
G|---- 0-------- 8------ 8---- 0--|-- 0-------------- 7-------- 7--|
D|--------------------------------|---------------------- 7--------|
A|--------------------------------|--------------------------------|
E| 0-------------- 7--------------| 0------------10----------------|
http://classicalguitartablature.blogspot.com/
E|---------- 8 7---- 8------------|---------------- 8---- 7---- 5--|
B|---------- 7--------------------|------------ 5-- 5---- 5---- 5--|
G|-------- 7------------------ 5--|-------- 5------ 5---- 5---- 5--|
D|---- 7---------------- 5--------|---- 5--------------------------|
A|---------------- 0--------------| 0-------------- 0--------------|
E|10------------------------------|--------------------------------|
http://classicalguitartablature.blogspot.com/
E| 8---- 7-- 5-- 7----------------|-------------- 5-- 7 8-- 7------|
B|------ 5-- 5---- 0---------- 0--|------------ 0-- 0-- 0-- 0------|
G| 5---- 5-- 5---------- 0--------|-------- 0-------- 0 0-- 0-- 0--|
D|-------------------- 0-------- 0|---- 0--------------------------|
A| 0------------------------------|--------------------------------|
E|---------------- 3--------------| 3-------------- 0--------------|
http://classicalguitartablature.blogspot.com/
E|--------------------------------|--------------------------------|
B|---- 3 5 3-- 0-- 3-- 3-- 0-- 3--| 3 5 3-- 0-- 3-- 0--------------|
G|---- 2 4 2-- 0-- 4-- 2-- 0-- 2--| 2-- 2-- 0-- 2-- 0-- 2----------|
D|--------------------------------|-------------------- 2-- 0-- 4--|
A|--------------------------------|------------------------ 0-- 5--|
E| 0------------------------------|--------------------------------|
http://classicalguitartablature.blogspot.com/
E|--------------------------------|--------------------------------|
B|-------------------- 0----------|------------ 0-- 0-- 3----------|
G| 0------ 0------ 0---------- 0--|-------- 0------ 0-- 0----------|
D| 2-- 4------ 4---------- 2------|---- 2---------- 2-- 4----------|
A| 3------------------------------| 3-------------- 3-- 5----------|
E|--------------------------------|---------------------------- 0--|
http://classicalguitartablature.blogspot.com/
E|--------------------------------|--------------------------------|
B|---- 3-- 3-- 0-- 3-- 3-- 5-- 3--| 0-- 3-- 0 3-- 0----------------|
G|---- 2-- 2-- 0-- 2-- 2-- 4-- 2--| 0-- 2-- 0 2-- 0-- 2-- 0---- 2--|
D|--------------------------------|------------------ 2---- 0-- 2--|
A|--------------------------------|---------------------------- 3--|
E|--------------------------------|--------------------------------|
http://classicalguitartablature.blogspot.com/
E|--------------------------------|--------------------------------|
B| 0-- 3-- 0----------------------|---- 0-- 3----------------------|
G| 0-- 2-- 0-- 2-- 0------ 0------|---- 0-- 2----------------------|
D|------------ 2-- 0-- 2-- 0------|--------------------------------|
A|--------------------------------|--------------------------------|
E|--------------------------------|--------------------------------|
http://classicalguitartablature.blogspot.com/

0 ความคิดเห็น:

แสดงความคิดเห็น