To celebrate the anniversary, I am giving you (finally...) : iPhone LickByNeck !!!!!!
0 com

You Can't Hurry Love (BASIC)

The Supremes' tune fingerstyle chord melody guitar BASIC arrangement played in the key of G.

You Can't Hurry Love-The Supremes -BASIC ARRANGEMENT played in the key of G.
http://classicalguitartablature.blogspot.com/
E|--------------------------------|--------------------------------|
B|--------------------------------|--------------------------------|
G|--------------------------------|--------------------------------|
D|--------------------------------|--------------------------------|
A|--------------------------------|--------------------------------|
E| 3 3---- 3-- 3-- 3-- 3 3-- 3----| 3-- 3-- 3---- 3-- 3-- 3 3-- 3--|
http://classicalguitartablature.blogspot.com/
E|--------------------------------|--------------------------------|
B|--------------------------------|---------------------- 0-- 3----|
G|--------------------------------|---------------------- 0-- 0----|
D|--------------------------------|---------------------- 0-- 0----|
A|--------------------------------|--------------------------------|
E| 3-- 3-- 3---- 3-- 3-- 3 3-- 3--| 3-- 3-- 3---- 3-- 3 3 3---- 3--|
http://classicalguitartablature.blogspot.com/
http://classicalguitartablature.blogspot.com/
E| 0------------------------------|------------------------------ 0|
B| 0------ 3-- 0------------------|-------------------- 0-- 3-- 0 0|
G| 0---------- 0-------------- 0--| 2------ 0---------- 0-- 0-- 0 2|
D|-------- 0-- 0------------------|---- 2------------------ 0------|
A|--------------------------------| 3-- 3-- 3-------------------- 2|
E| 3-- 3-- 3---- 3-- 3-- 3 3-- 3--|-------------- 3-- 3 3-- 3-- 3--|
http://classicalguitartablature.blogspot.com/
E|--------------------------------|-------------- 3----------------|
B|------ 3-- 0--------------------|-- 3------ 5-- 5-- 5-- 5------ 1|
G|------ 2-- 0-------- 0-- 2-- 0 2|---------- 5------ 5-- 5------ 0|
D|---------- 2-------- 2-- 2-- 2 2|------------------------------ 0|
A|---- 2 2---------------------- 0|-- 0-- 0------ 5 5-- 5 5-- 5----|
E|-------------- 0-- 0 0-- 0-- 0--|------------------------------ 3|
http://classicalguitartablature.blogspot.com/
E|------------------ 0---------- 0|-- 0----------------------------|
B|-- 0------ 0-------------- 3-- 1|-- 3-- 1-- 3---------- 0-- 3-- 3|
G|-- 0-- 2-- 0-------------- 0-- 0|-- 0-- 0-- 0---------- 0-- 0-- 2|
D|------ 0-- 0-------------- 0----|------ 2-- 0---------- 0-- 0----|
A|--------------------------------| 3 3---- 3----------------------|
E|-- 3-- 3---- 3-- 3 3-- 3-- 3----|------------ 3---- 3 3 3-- 3----|
http://classicalguitartablature.blogspot.com/
E|-------- 2----------------------|--------------------------------|
B|---- 5-- 3-- 0------------------|---- 0-- 1-- 0---- 0---------- 1|
G|---- 2-- 2-- 0------ 2 0------ 2|---- 2-- 2-- 2-- 2---- 5-- 5-- 0|
D| 4-- 4------ 2---- 2-- 2------ 2|---- 2-- 2-- 2-- 4---- 4------ 0|
A| 2-- 2-- 2----------------------| 0-- 0-- 0---- 5-- 5-- 5-- 5----|
E|-------------- 0-- 0-- 0 0-- 0--|------------------------------ 3|
http://classicalguitartablature.blogspot.com/
E|------------------ 0---------- 0|-- 0----------------------------|
B|-- 0------ 0-------------- 3-- 1|-- 3-- 1-- 3---------- 0-- 3-- 3|
G|-- 0-- 2-- 0-------------- 0-- 0|-- 0-- 0-- 0---------- 0-- 0-- 2|
D|------ 0-- 0-------------- 0----|------ 2-- 0---------- 0-- 0----|
A|--------------------------------| 3 3---- 3----------------------|
E|-- 3-- 3---- 3-- 3 3-- 3-- 3----|------------ 3---- 3 3 3-- 3----|
http://classicalguitartablature.blogspot.com/
E|-------- 2----------------------|------------ 0---------------- 2|
B|---- 5-- 3-- 0------------------|-- 0-- 1---- 3---- 3-- 3-- 3-- 3|
G|---- 2-- 2-- 0------ 2 0------ 2|-- 2-- 2---- 2---- 2-- 2------ 4|
D| 4-- 4------ 2---- 2-- 2------ 2|-- 2---- 2-------- 4-- 4--------|
A| 2-- 2-- 2----------------------| 0-- 0-- 0-- 5---- 5-- 5---- 5 2|
E|-------------- 0-- 0-- 0 0-- 0--|--------------------------------|
http://classicalguitartablature.blogspot.com/
E|-- 2------ 2--------------------| 2------ 2---------------- 3----|
B|-- 3-- 3-- 3---- 3------ 3-- 5--| 3------ 3-------- 3-- 5-- 3----|
G|-- 4-- 4-- 4---- 4------ 4-- 4--| 4------ 4-------- 4---- 4------|
D|---------- 4--------------------|---------- 4--------------------|
A|---- 2-- 2---- 2-- 2-- 2 2-- 2--| 2-- 2-- 2---- 2-- 2-- 2-- 2----|
E|--------------------------------|--------------------------------|
http://classicalguitartablature.blogspot.com/
E| 3-- 0-- 0---------- 3-- 3-- 0--| 3 0-- 0------------ 3-- 3-- 0--|
B| 0-- 0-- 0---------- 0-- 0-- 0--| 0 0-- 0------------ 0-- 0-- 0--|
G| 0-- 0-- 0-------------- 0-- 0--| 0-- 0 0---------------- 0-- 0--|
D|--------------------------------|--------------------------------|
A|--------------------------------|--------------------------------|
E| 0-- 0-- 0---- 0-- 0 0-- 0-- 0--| 0-- 0-- 0---- 0-- 0 0-- 0-- 0--|
http://classicalguitartablature.blogspot.com/
E| 3-- 0 0---------- 0-- 3---- 0 3|-- 0 0------------ 0---- 0 0----|
B| 1-- 1 1---------- 1-- 1------ 1|-- 1 1------------ 1-- 1--------|
G| 0-- 0 0---------- 0-- 0---- 0 0|-- 0 0------------ 0-- 0-- 0----|
D|--------------------------------|--------------------------------|
A| 3-- 3-- 3---- 3 3-- 3-- 3-- 3--| 3-- 3 3------ 3 3 3-- 3---- 3--|
E|--------------------------------|--------------------------------|
http://classicalguitartablature.blogspot.com/
E| 2-------------------- 0-- 3-- 3|------------ 3 3------ 3--------|
B| 3-- 3-- 3------------ 3--------|-- 5-- 3 3 5------ 5------ 5-- 1|
G| 2-- 2-- 2----------------------|------------------------------ 0|
D|---- 4-- 4----------------------|------------------------------ 0|
A| 5-- 5-- 5---- 5-- 5-- 5 5-- 5--| 5-- 5-- 5---- 5-- 5 5 5-- 5----|
E|--------------------------------|--------------------------------|
http://classicalguitartablature.blogspot.com/
E|------------------ 0------------| 0 0----------------------------|
B|-- 0------ 0-------------- 3----| 1-- 3-- 1 3---------- 0-- 3----|
G|-- 0-- 2-- 0-------------- 0----| 0-- 0-- 0-- 0-------- 0-- 0----|
D|------ 0-- 0-------------- 0----|-------- 2-- 0-------- 0---- 0--|
A|--------------------------------| 3-- 3-- 3----------------------|
E| 3-- 3-- 3-- 3-- 3-- 3-- 3-- 3--|-------------- 3-- 3 3 3-- 3----|
http://classicalguitartablature.blogspot.com/
E|-------- 2----------------------|--------------------------------|
B| 3-- 5-- 3-- 0------------------|---- 0-- 1-- 0---- 0---------- 1|
G| 2-- 2-- 2-- 0------ 2 0--------| 2-- 2-- 2-- 2-- 2---- 5---- 5 0|
D| 4-- 4------ 2------ 2 2--------| 2-- 2-- 2-- 2-- 4---- 4------ 0|
A| 2-- 2-- 2----------------------| 0-- 0-- 0---- 5-- 5-- 5 5-- 5--|
E|-------------- 0-- 0-- 0 0-- 0--|--------------------------------|
http://classicalguitartablature.blogspot.com/
E|------------------ 0------------| 0 0----------------------------|
B|-- 0------ 0-------------- 3----| 1-- 3-- 1 3---------- 0-- 3----|
G|-- 0-- 2-- 0-------------- 0----| 0-- 0-- 0-- 0-------- 0-- 0----|
D|------ 0-- 0-------------- 0----|-------- 2-- 0-------- 0---- 0--|
A|--------------------------------| 3-- 3-- 3----------------------|
E| 3-- 3-- 3-- 3-- 3-- 3-- 3-- 3--|-------------- 3-- 3 3 3-- 3----|
http://classicalguitartablature.blogspot.com/
E|-------- 2----------------------|------------ 0------------------|
B| 3-- 5-- 3-- 0------------------|-- 0---- 1-- 3---- 3-- 3-- 3----|
G| 2-- 2-- 2-- 0------ 2 0--------| 2-- 2-- 2-- 2---- 2-- 2--------|
D| 4-- 4------ 2------ 2 2--------| 2-- 2-- 2-------- 4-- 4--------|
A| 2-- 2-- 2----------------------| 0-- 0-- 0---- 5-- 5-- 5 5-- 5--|
E|-------------- 0-- 0-- 0 0-- 0--|--------------------------------|
http://classicalguitartablature.blogspot.com/
E|--------------------------------|--------------------------------|
B| 7---------------------------- 7|-------- 7----------------------|
G| 5------------ 5-------------- 5|-------- 5----------------------|
D| 7------------ 7----------------| 7------ 7----------------------|
A|--------------------------------| 5 5---- 5---- 5-- 5-- 5 5-- 5--|
E| 5-- 5-- 5---- 5-- 5-- 5 5-- 5--|--------------------------------|
http://classicalguitartablature.blogspot.com/
E| 3-------------- 3--------------|---------------------- 2--------|
B| 3---------- 3-- 1--------------|---------------- 5 5-- 0--------|
G| 0-------------- 0--------------| 5-------------- 5 5-- 0--------|
D|--------------------------------| 5-------------- 5 5------------|
A|---- 0-- 2-- 5-- 3--------------|------------ 7-- 5 5------------|
E| 3------------------ 0-- 3-- 0--| 5-- 7-- 8------------ 3--------|
http://classicalguitartablature.blogspot.com/
0 com

The Good, The Bad And The Ugly (BASIC)

Ennio Morricone's tune fingerstyle chord melody guitar BASIC arrangement played in the key of Am.

The Good, The Bad & The Ugly-Ennio Morricone -BASIC ARRANGEMENT played in the key of C.
http://classicalguitartablature.blogspot.com/
E|--------------------------------|--------------------------------|
B|---------------- 1--------------|-------- 1------ 1--------------|
G| 2------ 2------ 2------ 2------| 2------ 2------ 2---- 2--------|
D| 2------ 2------ 2------ 2------| 2------ 2------ 2---- 2--------|
A| 0------ 0------ 0------ 0------| 0------ 0------ 0------ 0------|
E|------------ 0-------------- 0--|------------ 0------ 0------ 0--|
http://classicalguitartablature.blogspot.com/
E|-- 5 5--------------------------|--------------------------------|
B| 5 5---- 5------ 5--------------| 3------------------------------|
G| 5---- 5-------- 5---------- 5--|-------- 2----------------------|
D|---------------- 7--------------|---- 4-- 4---------- 4----------|
A| 0------ 0------ 0------ 0------| 5------ 5-- 0-- 5------ 5-- 0--|
E|------------ 0-------------- 0--|--------------------------------|
http://classicalguitartablature.blogspot.com/
http://classicalguitartablature.blogspot.com/
E|-- 5 5--------------------------|---------- 3--------------------|
B| 5 5---- 5------ 5------------ 3|-------- 3----------------------|
G| 5---- 5-------- 5---------- 5--| 4------------------------------|
D|---------------- 7--------------|---- 5-------------- 5----------|
A| 0------ 0------ 0------ 0------|------------ 5-------------- 5--|
E|------------ 0-------------- 0--| 3------ 3------ 3------ 3------|
http://classicalguitartablature.blogspot.com/
E|-- 5-- 5------------------------|--------------------------------|
B| 5-- 5------------------------ 0|--------------------------------|
G| 5-------------------------- 5 0|---- 2 0------------------ 0----|
D| 7------------------ 7----------| 2---- 2------------------------|
A| 8------ 8------ 8------ 8------|---------- 2-------------- 2----|
E|------------ 8-------------- 8--| 0------ 0------ 0------ 0------|
http://classicalguitartablature.blogspot.com/
E|-- 5 5--------------------------|--------------------------------|
B| 5 5---- 5-------------- 3------|--------------------------------|
G| 5---- 5------------ 2-- 2-- 2--| 2---------------------- 2------|
D|------------------ 4---- 4------|---- 2------------ 2------------|
A| 0------ 0------ 5------ 5 0----| 0------ 0---- 0-------- 0------|
E|------------ 0------------------|------------ 0-------------- 0--|
http://classicalguitartablature.blogspot.com/
E|-- 5 5--------------------------|--------------------------------|
B| 5 5---- 5------ 5--------------| 3------------------------------|
G| 5---- 5-------- 5---------- 5--|-------- 2----------------------|
D|---------------- 7--------------|---- 4-- 4---------- 4----------|
A| 0------ 0------ 0------ 0------| 5------ 5-- 0-- 5------ 5-- 0--|
E|------------ 0-------------- 0--|--------------------------------|
http://classicalguitartablature.blogspot.com/
E|-- 5 5--------------------------|---------- 3--------------------|
B| 5 5---- 5------ 5------------ 3|-------- 3----------------------|
G| 5---- 5-------- 5---------- 5--| 4------------------------------|
D|---------------- 7--------------|---- 5-------------- 5----------|
A| 0------ 0------ 0------ 0------|------------ 5-------------- 5--|
E|------------ 0-------------- 0--| 3------ 3------ 3------ 3------|
http://classicalguitartablature.blogspot.com/
E|-- 5-- 5------------------------|--------------------------------|
B| 5-- 5------------------------ 0|--------------------------------|
G| 5-------------------------- 5 0|---- 2 0------------------ 0----|
D| 7------------------ 7----------| 2---- 2------------------------|
A| 8------ 8------ 8------ 8------|---------- 2-------------- 2----|
E|------------ 8-------------- 8--| 0------ 0------ 0------ 0------|
http://classicalguitartablature.blogspot.com/
E|-- 5 5--------------------------|--------------------------------|
B| 5 5---- 5-------------- 3------|--------------------------------|
G| 5---- 5------------ 2-- 2-- 2--| 2---------------------- 2------|
D|------------------ 4---- 4------|---- 2------------ 2------------|
A| 0------ 0------ 5------ 5 0----| 0------ 0---- 0-------- 0------|
E|------------ 0------------------|------------ 0-------------- 0--|
http://classicalguitartablature.blogspot.com/
E|--------------------------------|---- 0------ 3------------------|
B|-------- 1------ 1--------------|-------- 1-- 0------------------|
G| 2------ 2------ 2---- 2--------| 2---- 2---- 0------------------|
D| 2------ 2------ 2---- 2--------| 2------------------------------|
A| 0------ 0------ 0------ 0------| 0------ 0------------------ 2--|
E|------------ 0------ 0------ 0--|------------ 0-- 0------ 0 0----|
http://classicalguitartablature.blogspot.com/
E|--------------------------------|---- 0------ 3------------------|
B|--------------------------------|-------- 1-- 1------------------|
G|-------- 0------------------ 2--| 2---------- 0------------------|
D|------ 2------------------------| 3------------------------------|
A|------------ 2-------------- 2--|-------- 3-- 3-- 3------ 3------|
E| 0------ 0------ 0------ 0------| 1-------------------------- 3--|
http://classicalguitartablature.blogspot.com/
E|--------------------------------|---- 0------------ 7----------10|
B|--------------------------------|-------- 1-- 8------------ 8--12|
G| 0---- 0-------- 0------ 0 2----| 2---- 2---- 9-- 9-------- 9--12|
D| 2---- 2-------- 2---- 2--------| 2---------- 8-- 9-------- 9----|
A| 3------ 3------ 3------ 3------| 0------ 0----------------------|
E|------------ 3-------------- 3--|------------ 0-- 0---- 0-- 7----|
http://classicalguitartablature.blogspot.com/
E|----------------------------10--|12------------------------------|
B|--------------12--------12--12--|12------------------------------|
G|--------------12--------12------|13------------------------14----|
D|--------------------------------|--------------------------------|
A|10----10--------10------10------|--------------------------------|
E|----------10----------------10--| 0------ 0-- 0-- 0------ 0-- 0--|
http://classicalguitartablature.blogspot.com/
E| 8 7 5----------10--------------| 8 7 5----------10------------ 8|
B| 5 5 5----------10----------10--| 5 5 5----------10----------10 5|
G| 5-- 5----------11----------11--| 5-- 5----------11----------11 5|
D|--------------------12------12--|--------------------12------12--|
A| 0------ 0------------------ 0--| 0------ 0------------------ 0--|
E|------------ 0--10------10------|------------ 0--10------10------|
http://classicalguitartablature.blogspot.com/
E|-- 7--10------ 8-- 7--10------ 8| 7 5 8-- 7---- 5------ 5 3-- 0--|
B|---- 5--1010-- 5---- 5--1010-- 5|-------- 8 8-- 7-- 8 7-- 1-- 1--|
G|---- 5----11-- 5---- 5----11-- 5|-------- 9 9---- 7------ 0-- 0--|
D|------------10--------------10--|---------- 9--------------------|
A| 0-------------- 0--------------| 8------ 7------ 5------ 3------|
E|--------10--------------10------|--------------------------------|
http://classicalguitartablature.blogspot.com/
E| 2---- 2 0----------------------|--------------------------------|
B| 3 5 3-- 1-- 1-- 3 1 0 3 1------|--------------------------------|
G| 4------ 0-- 0-- 0------ 2-- 2--|--------------------------------|
D|------------ 2-- 0------ 1-- 1--| 5-------------------------- 5--|
A| 2------ 3----------------------| 6-------------------------- 6--|
E|---------------- 3------ 1------|--------------------------------|
http://classicalguitartablature.blogspot.com/
E|--------------------------------|--------------------------------|
B|--------------------------------|-------- 1------ 1--------------|
G| 1------------------------ 1----| 2------ 2------ 2---- 2--------|
D| 0-------------------------- 0--| 2------ 2------ 2---- 2--------|
A|--------------------------------| 0------ 0------ 0------ 0------|
E| 0-------------------------- 0--|------------ 0------ 0------ 0--|
http://classicalguitartablature.blogspot.com/
E|-- 5 5--------------------------|--------------------------------|
B| 5 5---- 5------ 5--------------| 3------------------------------|
G| 5---- 5-------- 5---------- 5--|-------- 2----------------------|
D|---------------- 7--------------|---- 4-- 4---------- 4----------|
A| 0------ 0------ 0------ 0------| 5------ 5-- 0-- 5------ 5-- 0--|
E|------------ 0-------------- 0--|--------------------------------|
http://classicalguitartablature.blogspot.com/
E|-- 5 5--------------------------|---------- 3--------------------|
B| 5 5---- 5------ 5------------ 3|-------- 3----------------------|
G| 5---- 5-------- 5---------- 5--| 4------------------------------|
D|---------------- 7--------------|---- 5-------------- 5----------|
A| 0------ 0------ 0------ 0------|------------ 5-------------- 5--|
E|------------ 0-------------- 0--| 3------ 3------ 3------ 3------|
http://classicalguitartablature.blogspot.com/
E|-- 5 5--------------------------|-- 5 5--------------------------|
B| 5 5---- 5------ 5--------------| 5 5---- 5------ 5--------------|
G| 5---- 5-------- 5---------- 5--| 5---- 5-------- 5---------- 5--|
D|---------------- 7--------------|---------------- 7--------------|
A| 0------ 0------ 0------ 0------| 0------ 0------ 0------ 0------|
E|------------ 0-------------- 0--|------------ 0-------------- 0--|
http://classicalguitartablature.blogspot.com/
E|-- 5---- 5----------------------|--------------------------------|
B| 5-- 5---- 5--------------------|--------------------------------|
G| 5-------------- 5--------------|--------------------------------|
D|---------------------- 7--------|--------------------------------|
A| 0------------------------------|--------------------------------|
E|--------------------------------|--------------------------------|
http://classicalguitartablature.blogspot.com/
0 com

Can You Feel The Love Tonight - Disney Lion King (BASIC)

Elton John's tune fingerstyle chord melody guitar BASIC arrangement played in the key of C.

Can You Feel The Love Tonight-Lion King-Elton John - BASIC ARRANGEMENT played in the key of C.
http://classicalguitartablature.blogspot.com/
E| 0---------- 0---------- 3------| 1---------- 1-- 1 0------------|
B| 1-------------- 3--------------| 1-------------- 1 1---- 1------|
G| 0------ 0------ 0-------- 0----| 2------ 2------ 0 0---- 0-- 0--|
D|---- 2---------- 0 0------------|---- 3------------------ 2------|
A| 3-------------- 2--------------| 0------------------------------|
E|--------------------------------|---------------- 3--------------|
http://classicalguitartablature.blogspot.com/
E|--------------------------------|--------------------------------|
B|-------------------- 1----------|--------------------------------|
G| 2------ 2-- 2-- 0------ 0------|-- 0-------- 0------ 0------ 0--|
D|---- 3---------- 2-------- 2----| 0---- 2-------- 5------ 2------|
A|--------------------------------| 2------ 3------ 5--------------|
E| 1-------------- 0--------------|------------------------ 0------|
http://classicalguitartablature.blogspot.com/
http://classicalguitartablature.blogspot.com/
E|--------------------------------|--------------------------------|
B|---- 0 1-- 3-- 1----------------|---- 0 1-- 3-- 1----------------|
G| 2------------ 0-- 0---- 0-- 0--| 2-------------------------- 0--|
D| 3------------ 2------ 2--------| 3---------------------- 2------|
A|--------------------------------|--------------------------------|
E| 1-------------- 0--------------| 1-------------- 0--------------|
http://classicalguitartablature.blogspot.com/
E|---------------------- 0--------|--------------------------------|
B|---- 0 1-- 3-- 1----------------| 6-- 5 3-- 5-- 3-------- 3------|
G| 2---------------- 0------------| 5-- 5 5-- 5---------------- 0--|
D| 3------------------------ 2----| 3-- 3 3-- 3-------- 0----------|
A|--------------------------------| 5------------------------------|
E| 1-------------- 0--------------|---------------- 3--------------|
http://classicalguitartablature.blogspot.com/
E|--------------------------------|--------------------------------|
B|---- 0 1-- 3-- 1----------------|---- 0 1-- 3-- 1----------------|
G| 2------------ 0-- 0---- 0-- 0--| 2-------------------------- 0--|
D| 3------------ 2------ 2--------| 3---------------------- 2------|
A|--------------------------------|--------------------------------|
E| 1-------------- 0--------------| 1-------------- 0--------------|
http://classicalguitartablature.blogspot.com/
E|-------------- 3---- 0----------| 1-- 0---- 0--------------------|
B|---- 0 1------------ 1 1--------| 3-- 3-- 3---- 3------ 3--------|
G| 2-------- 0-------------- 2----| 3-- 3-------------- 0------ 0--|
D| 3-------------------------- 2--|------ 3---------- 0---- 0------|
A|---------------- 0--------------| 1------------------------------|
E| 1------------------------------|---------------- 3--------------|
http://classicalguitartablature.blogspot.com/
E| 3-------- 0---------- 3-- 0----|--------------------------------|
B| 1------ 1-- 3------ 3----------|------ 1---------------- 1------|
G| 0---- 0------------ 0----------|-- 2------ 2-------- 2---- 2----|
D|---- 2---- 2------ 0------------|-- 2 2------------ 3-------- 3--|
A| 3-------------- 2------------ 0|--------------------------------|
E|--------------------------------|-------------- 1----------------|
http://classicalguitartablature.blogspot.com/
E|------------ 1---- 0------------|--------------------------------|
B|-------- 1-- 1---- 1-- 3---- 3--|------------------ 3------ 3----|
G|------ 0 0-- 2-------- 2---- 0--|-------- 0---- 0---- 0-- 0------|
D|---- 2-------------- 3----------|---- 0------ 0-------- 0--------|
A| 3------------------------------|--------------------------------|
E|---------------- 1------ 2------| 3------------ 3-------------- 1|
http://classicalguitartablature.blogspot.com/
E|--------------------------------| 3------ 0----------------------|
B|---------- 0 1------------------| 1---- 1 1-- 1-- 1 1-------- 1 6|
G|---- 2 2---- 0---- 0---- 0-- 0--|-- 2-------- 0-- 2 2------ 0-- 5|
D|-- 3-------- 2-------- 2--------|-- 2------ 2---- 3-- 3-- 2------|
A|--------------------------------| 0---------------------------- 5|
E|---------------- 0--------------|-------- 3------ 1------ 0------|
http://classicalguitartablature.blogspot.com/
E|------ 0-------------- 0--------|--------------------------------|
B|------ 1------ 3------ 3---- 3--|-------- 3------------ 3--------|
G|------ 0---- 0 2---- 2 2--------|---- 0------ 0------------ 0----|
D|-- 7-------- 2---- 3------------|---- 0-------- 0---- 0----------|
A|--------------------------------|--------------------------------|
E|------ 0-------- 1------ 2------| 3-------------- 3--------------|
http://classicalguitartablature.blogspot.com/
E| 3-------- 0---------- 3-- 0----|--------------------------------|
B| 1------ 1-- 3------ 3----------|------ 1---------------- 1------|
G| 0---- 0------------ 0----------|-- 2------ 2-------- 2---- 2----|
D|---- 2---- 2------ 0------------|-- 2 2------------ 3-------- 3--|
A| 3-------------- 2------------ 0|--------------------------------|
E|--------------------------------|-------------- 1----------------|
http://classicalguitartablature.blogspot.com/
E|------------ 1---- 0------------|--------------------------------|
B|-------- 1-- 1---- 1-- 3---- 3--|------------------ 3------ 3----|
G|------ 0 0-- 2-------- 2---- 0--|-------- 0---- 0---- 0-- 0------|
D|---- 2-------------- 3----------|---- 0------ 0-------- 0--------|
A| 3------------------------------|--------------------------------|
E|---------------- 1------ 2------| 3------------ 3-------------- 1|
http://classicalguitartablature.blogspot.com/
E|--------------------------------| 3------ 0----------------------|
B|---------- 0 1------------------| 1---- 1 1-- 1-- 1 1-------- 1 6|
G|---- 2 2---- 0---- 0---- 0-- 0--|-- 2-------- 0-- 2 2------ 0-- 5|
D|-- 3-------- 2-------- 2--------|-- 2------ 2---- 3-- 3-- 2------|
A|--------------------------------| 0---------------------------- 5|
E|---------------- 0--------------|-------- 3------ 1------ 0------|
http://classicalguitartablature.blogspot.com/
E|------ 0------------------------|--------------------------------|
B|------ 1------ 3-------- 1-- 1--|------------ 1------------------|
G|------ 0---- 0 2---- 2-- 0-- 2--|-------- 2------ 0--------------|
D|-- 7-------- 2---- 3---- 0-- 3--|---- 3---------- 2--------------|
A|--------------------------------| 3------------ 3----------------|
E|------ 0-------- 1------ 3------|------------------------------ 1|
http://classicalguitartablature.blogspot.com/
E|--------------------------------| 3------ 0----------------------|
B|---------- 0 1------------------| 1---- 1 1-- 1-- 1 1-------- 1 6|
G|---- 2 2---- 0---- 0---- 0-- 0--|-- 2-------- 0-- 2 2------ 0-- 5|
D|-- 3-------- 2-------- 2--------|-- 2------ 2---- 3-- 3-- 2------|
A|--------------------------------| 0---------------------------- 5|
E|---------------- 0--------------|-------- 3------ 1------ 0------|
http://classicalguitartablature.blogspot.com/
E|-------- 0----------------------|--------------------------------|
B|-------- 1-- 3------------ 1-- 1|------------------ 1------ 1----|
G|-------- 0-- 2------------ 2-- 2|------------ 2------------ 0----|
D|-- 7-------- 3------ 3-- 3---- 3|-------- 3---------------- 2----|
A|--------------------------------|---- 3------------------ 3------|
E|-------- 0------ 1------ 3------|--------------------------------|
http://classicalguitartablature.blogspot.com/
E|--------------------------------|--------------------------------|
B|--------------------------------|--------------------------------|
G|--------------------------------|--------------------------------|
D|--------------------------------|--------------------------------|
A|--------------------------------|--------------------------------|
E|--------------------------------|--------------------------------|
http://classicalguitartablature.blogspot.com/
0 com

The Great Pretender (BASIC)

The Platters' tune fingerstyle chord melody guitar BASIC arrangement played in the key of F.

The Great Pretender-The Platters-BASIC ARRANGEMENT played in the key of F.
http://classicalguitartablature.blogspot.com/
E|------------------------|------------------------|
B| 1-- 1-- 1-- 1-- 1-- 1--| 3-- 3-- 3-- 3-- 3-- 3--|
G| 2------ 2-- 2-- 2-- 2--| 3-- 3-- 3-- 3-- 3-- 3--|
D| 3-- 3-- 3-- 3------ 3--| 3-- 3-- 3-- 3-- 3-- 3--|
A|------------------------| 1---------- 1----------|
E| 1---------- 1----------|------------------------|
http://classicalguitartablature.blogspot.com/
E|------------------------|------------------------|
B| 1---------- 2---- 1----|------ 1---- 3---- 1----|
G| 0---------- 1---- 0----|------------------------|
D|-------- 2-- 3---- 2----|------------------------|
A| 3---------- 4------ 3--|------------------------|
E|------------------------|------------------------|
http://classicalguitartablature.blogspot.com/
http://classicalguitartablature.blogspot.com/
E|------------------------|------------------------|
B| 1----------------------|------------------------|
G| 2---- 2-------- 0------| 0---------- 0-- 2 3----|
D| 3---------- 3------ 3--|-------- 3--------------|
A|------------------------| 1----------------------|
E| 1----------------------|------------------------|
http://classicalguitartablature.blogspot.com/
E|------------------------|------------------------|
B|---------------- 1------|------------------------|
G| 2-------- 2------------| 0---------- 0----------|
D|------ 3---------- 3----|------ 3------------ 3--|
A|------------------------|------------------------|
E| 1----------------------| 1----------------------|
http://classicalguitartablature.blogspot.com/
E|------------------------|------------------------|
B| 3------------ 3--------|-------------- 1-- 3----|
G| 3------ 3--------------| 3---- 3----------------|
D|---- 3---- 3------ 3----|---- 3------ 3----------|
A| 1----------------------| 1----------------------|
E|------------------------|------------------------|
http://classicalguitartablature.blogspot.com/
E|------------------------|------------------------|
B| 1----------------------|------------------------|
G| 2---------- 2----------| 0---------- 0----------|
D|-- 3-- 3------------ 3--|-------- 3---------- 3--|
A|------------------------|------------------------|
E| 1----------------------| 1----------------------|
http://classicalguitartablature.blogspot.com/
E|------------------------| 0---------------- 0-- 1|
B| 3-------------- 3------|-- 1-------- 1 3-- 1-- 1|
G|-------- 3--------------| 0------ 0------------ 2|
D|---- 3------ 3------ 3--| 2-- 2------------------|
A| 1----------------------| 3----------------------|
E|------------------------|---------------------- 1|
http://classicalguitartablature.blogspot.com/
E|------------------ 1----|------------------------|
B|------------ 1----------| 3------------ 3--------|
G|-------- 2---- 2------ 3|------ 3----------------|
D|-- 3--------------------|-- 3-------- 3---- 3----|
A|------------------------| 1----------------------|
E|------------------------|------------------------|
http://classicalguitartablature.blogspot.com/
E|------------------------|------------------------|
B| 1----------------------|------------------------|
G|------ 2------ 2--------| 0-------- 0------ 0----|
D|------------ 3------ 3--|-------- 2------ 3------|
A|------------------------| 3----------------------|
E| 1----------------------|------------------------|
http://classicalguitartablature.blogspot.com/
E|------------------------|------------------------|
B|------------ 1----------|------------ 1-- 3-- 1--|
G|-------- 2------ 2------|-------- 0--------------|
D| 3------------------ 3--|---- 2------------------|
A|------------------------| 3----------------------|
E| 1----------------------|------------------------|
http://classicalguitartablature.blogspot.com/
E|------------------------|------------------------|
B| 1----------------------|------------------------|
G| 2---- 2-------- 0------| 0---------- 0-- 2 3----|
D| 3---------- 3------ 3--|-------- 3--------------|
A|------------------------| 1----------------------|
E| 1----------------------|------------------------|
http://classicalguitartablature.blogspot.com/
E|------------------------|------------------------|
B|---------------- 1------|------------------------|
G| 2-------- 2------------| 0---------- 0----------|
D|------ 3---------- 3----|------ 3------------ 3--|
A|------------------------|------------------------|
E| 1----------------------| 1----------------------|
http://classicalguitartablature.blogspot.com/
E|------------------------|------------------------|
B| 3------------ 3--------|-------------- 1-- 3----|
G| 3------ 3--------------| 3---- 3----------------|
D|---- 3---- 3------ 3----|---- 3------ 3----------|
A| 1----------------------| 1----------------------|
E|------------------------|------------------------|
http://classicalguitartablature.blogspot.com/
E|------------------------|------------------------|
B| 1----------------------|------------------------|
G| 2---------- 2----------| 0---------- 0----------|
D|-- 3-- 3------------ 3--|-------- 3---------- 3--|
A|------------------------|------------------------|
E| 1----------------------| 1----------------------|
http://classicalguitartablature.blogspot.com/
E|------------------------| 0---------------- 0-- 1|
B| 3-------------- 3------|-- 1-------- 1 3-- 1-- 1|
G|-------- 3--------------| 0------ 0------------ 2|
D|---- 3------ 3------ 3--| 2-- 2------------------|
A| 1----------------------| 3----------------------|
E|------------------------|---------------------- 1|
http://classicalguitartablature.blogspot.com/
E|------------------ 1----|------------------------|
B|------------ 1----------| 3------------ 3--------|
G|-------- 2---- 2------ 3|------ 3----------------|
D|-- 3--------------------|-- 3-------- 3---- 3----|
A|------------------------| 1----------------------|
E|------------------------|------------------------|
http://classicalguitartablature.blogspot.com/
E|------------------------|------------------------|
B| 1----------------------|------------------------|
G|------ 2------ 2--------| 0-------- 0------ 0----|
D|------------ 3------ 3--|-------- 2------ 3------|
A|------------------------| 3----------------------|
E| 1----------------------|------------------------|
http://classicalguitartablature.blogspot.com/
E|------------------------|------------------------|
B|------------ 1----------|------------ 1----------|
G|-------- 2------ 2------|-------- 2------ 2------|
D| 3------------------ 3--|---- 3-------------- 3--|
A|------------------------|------------------------|
E| 1----------------------| 1----------------------|
http://classicalguitartablature.blogspot.com/
E|------------------------|------------------------|
B| 3-------------- 3------|---------------- 1 3----|
G| 3------ 3--------------| 3------ 3--------------|
D|---- 3------ 3------ 3--|---- 3------ 3----------|
A| 1----------------------| 1----------------------|
E|------------------------|------------------------|
http://classicalguitartablature.blogspot.com/
E|------------------------|------------------------|
B| 1----------------------| 1----------------------|
G| 2------ 2------ 2------| 0---------- 0----------|
D|---- 3------ 3------ 3--|-------- 3-------- 3----|
A|------------------------|------------------------|
E| 1----------------------| 1----------------------|
http://classicalguitartablature.blogspot.com/
E|------------------------|------------------------|
B| 3-------------- 3------|---------------- 1 3----|
G| 3------ 3--------------| 3------ 3--------------|
D|---- 3------ 3------ 3--|---- 3------ 3----------|
A| 1----------------------| 1----------------------|
E|------------------------|------------------------|
http://classicalguitartablature.blogspot.com/
E|------------------------|------------------------|
B| 1----------------------|------------ 1-- 3-- 1--|
G| 2------ 2------ 2------| 0------ 0-- 0-- 0-- 0--|
D|---- 3------ 3------ 3--|---- 2------ 2-- 2-- 2--|
A|------------------------| 3----------------------|
E| 1----------------------|------------------------|
http://classicalguitartablature.blogspot.com/
E|------------------------|------------------------|
B| 3-- 1-- 3-- 1-- 3-- 1--| 1----------------------|
G|-- 0 0-- 0-- 0-- 0-- 0--| 2---- 2-------- 0------|
D| 2-- 2-- 2-- 2-- 2-- 2--| 3---------- 3------ 3--|
A| 3----------------------|------------------------|
E|------------------------| 1----------------------|
http://classicalguitartablature.blogspot.com/
E|------------------------|------------------------|
B|------------------------|---------------- 1------|
G| 0---------- 0-- 2 3----| 2-------- 2------------|
D|-------- 3--------------|------ 3---------- 3----|
A| 1----------------------|------------------------|
E|------------------------| 1----------------------|
http://classicalguitartablature.blogspot.com/
E|------------------------|------------------------|
B|------------------------| 3------------ 3--------|
G| 0---------- 0----------| 3------ 3--------------|
D|------ 3------------ 3--|---- 3---- 3------ 3----|
A|------------------------| 1----------------------|
E| 1----------------------|------------------------|
http://classicalguitartablature.blogspot.com/
E|------------------------|------------------------|
B|-------------- 1-- 3----| 1----------------------|
G| 3---- 3----------------| 2---------- 2----------|
D|---- 3------ 3----------|-- 3-- 3------------ 3--|
A| 1----------------------|------------------------|
E|------------------------| 1----------------------|
http://classicalguitartablature.blogspot.com/
E|------------------------|------------------------|
B|------------------------| 3-------------- 3------|
G| 0---------- 0----------|-------- 3--------------|
D|-------- 3---------- 3--|---- 3------ 3------ 3--|
A|------------------------| 1----------------------|
E| 1----------------------|------------------------|
http://classicalguitartablature.blogspot.com/
E| 0---------------- 0-- 1|------------------------|
B|-- 1-------- 1 3-- 1-- 1|-------------------- 1--|
G| 0------ 0--------------|------ 2------ 2--------|
D| 2-- 2------------------|---- 3---- 3------------|
A| 3----------------------|------------------------|
E|------------------------| 1----------------------|
http://classicalguitartablature.blogspot.com/
E|------------------------|------------------------|
B|-------------- 3--------| 1----------------------|
G| 3------ 3--------------|------ 2------ 2--------|
D|---- 3------ 3------ 3--|------------ 3------ 3--|
A| 1----------------------|------------------------|
E|------------------------| 1----------------------|
http://classicalguitartablature.blogspot.com/
E|------------------------|------------------------|
B|------------------------|------------------------|
G| 0-------- 0------ 0-- 2|------------ 2----------|
D|-------- 2------ 3------| 2---------- 2----------|
A| 3----------------------| 0-- 0-- 0-- 0-- 0-- 0--|
E|------------------------|------------------------|
http://classicalguitartablature.blogspot.com/
E|------------------------|------------------------|
B|------------ 3----------| 3---- 1----------------|
G| 2------------ 2--------| 2---- 2-------- 2-- 2--|
D| 2---------------- 2----| 3---------- 3----------|
A| 0-- 0-- 0-- 0-- 0-- 0--|------------------------|
E|------------------------| 1----------------------|
http://classicalguitartablature.blogspot.com/
E|------------------------|------------------------|
B|------------------------|-------------- 1--------|
G| 0------ 0-------- 0----| 0---------- 2------ 2--|
D|---- 2---- 2-- 3--------|------ 3----------------|
A| 3----------------------|------------------------|
E|------------------------| 1----------------------|
http://classicalguitartablature.blogspot.com/
E|------------------------|------------------------|
B|------------ 3----------| 3---- 1----------------|
G|-------- 2------ 2------| 2---- 2-------- 2-- 2--|
D|---- 3-------------- 3--| 3---------- 3----------|
A|------------------------|------------------------|
E| 1----------------------| 1----------------------|
http://classicalguitartablature.blogspot.com/
E|------------------------|------------------------|
B|------------------------|-------------- 1--------|
G| 0------ 0-------- 0----| 0---------- 2------ 2--|
D|---- 2---- 2-- 3--------|------ 3----------------|
A| 3----------------------|------------------------|
E|------------------------| 1----------------------|
http://classicalguitartablature.blogspot.com/
E|------------------------|------------------------|
B|------------ 3----------|-- 3------ 1------------|
G|-------- 2------ 2------| 2---------------- 2----|
D|---- 3-------------- 3--| 3----------------------|
A|------------------------| 3----------------------|
E| 1----------------------|------------------------|
http://classicalguitartablature.blogspot.com/
E|------------------------|------------------------|
B|------------------------|------------------------|
G|-------- 0--------------| 0---------- 0----------|
D| 3------ 2-------- 2----|------ 3----------------|
A|------ 3----------------|------------------------|
E|------------------------|------------------------|
http://classicalguitartablature.blogspot.com/
E|------------------------|------------------------|
B|------------------------|------------------------|
G|------------------------|------------------------|
D|-------------- 3--------|---- 3-------------- 3--|
A|-------------- 1--------|---- 0------------------|
E|------------------------|------------------ 3----|
http://classicalguitartablature.blogspot.com/
E|------------------------|------------------------|
B|------------------------|------------------------|
G|------------------------|------------------------|
D|-------------- 3--------|------------------------|
A|------------------------|------------------------|
E|-------------- 1--------|------------------------|
http://classicalguitartablature.blogspot.com/
0 com

Red River Valley (BASIC)

Marty Robbins' tune fingerstyle chord melody guitar BASIC arrangement played in the key of C.

Red River Valley-Marty Robbins-BASIC ARRANGEMENT played in the key of C.
http://classicalguitartablature.blogspot.com/
E|--------------------------------| 0---- 0-------------------- 0--|
B|---------------------- 8-- 6----| 1------ 1-- 3-- 1------ 3------|
G|---- 0------ 5------ 7 7-- 7----| 0-- 0-- 0------ 3-- 3-- 3------|
D|-- 0------ 3------ 5-- 6-- 6----|---- 2------------ 3---- 2------|
A|--------------------------------| 3------------------------------|
E| 3------ 5------ 6------ 7------|-------- 0------ 3------ 2------|
http://classicalguitartablature.blogspot.com/
E| 3-- 1--------------------------|------------------------ 0------|
B| 1-- 1------ 1-------- 1--------|---------------- 3------ 3-- 3--|
G|---------- 2------------ 2-- 2--| 0-- 0 4---- 5-- 2-- 2------ 0--|
D|-------------------- 1----------|-- 0---- 3---------- 3------ 0--|
A|-------- 3----------------------|---------------- 0------ 2------|
E| 1-------------- 2------ 2------| 3------ 4----------------------|
http://classicalguitartablature.blogspot.com/
http://classicalguitartablature.blogspot.com/
E|--------------------------------| 0------ 0-- 0-- 0---------- 0--|
B| 1-------------- 1---------- 1--| 1------ 1-- 1-- 3------ 3------|
G| 0-------------- 0------ 0------|------ 0 0-- 0-------- 0--------|
D| 2-------------- 2--------------|---- 2-------------- 3----------|
A| 3-- 2-- 0------ 3--------------| 3---------------------- 2------|
E|------------ 3------------------|-------- 0------ 3--------------|
http://classicalguitartablature.blogspot.com/
E|------------------------------ 0|---------------- 3--------------|
B| 3-- 1-------------------- 1-- 1|------------ 5-- 6------ 6-- 5--|
G| 0-- 0-------- 0---- 0-- 0------|---- 0-- 5------------ 5 5------|
D| 2---------- 2---- 2---- 2------|-- 2---- 5---------- 3-- 3------|
A| 3------------------------------| 3------------------------------|
E|-------- 3------ 0------ 3------|-------- 6------ 5------ 4------|
http://classicalguitartablature.blogspot.com/
E|------------------------ 3------| 0---- 0-------------------- 0--|
B| 3---------------------- 6-- 6--| 1------ 1-- 3-- 1------ 3------|
G|------ 0------ 0---- 0-- 5-- 5--| 0-- 0-- 0------ 3-- 3-- 3------|
D|-- 0------ 0-------- 2------ 3--|---- 2------------ 3---- 2------|
A|---------------------- 5--------| 3------------------------------|
E| 3------ 1------ 0--------------|-------- 0------ 3------ 2------|
http://classicalguitartablature.blogspot.com/
E| 3-- 1--------------------------|------------------------ 0------|
B| 1-- 1------ 1-------- 1--------|---------------- 3------ 3-- 3--|
G|---------- 2------------ 2-- 2--| 0-- 0 4---- 5-- 2-- 2------ 0--|
D|-------------------- 1----------|-- 0---- 3---------- 3------ 0--|
A|-------- 3----------------------|---------------- 0------ 2------|
E| 1-------------- 2------ 2------| 3------ 4----------------------|
http://classicalguitartablature.blogspot.com/
E|--------------------------------| 0------ 0-- 0-- 0---------- 0--|
B| 1-------------- 1---------- 1--| 1------ 1-- 1-- 3------ 3------|
G| 0-------------- 0------ 0------|------ 0 0-- 0-------- 0--------|
D| 2-------------- 2--------------|---- 2-------------- 3----------|
A| 3-- 2-- 0------ 3--------------| 3---------------------- 2------|
E|------------ 3------------------|-------- 0------ 3--------------|
http://classicalguitartablature.blogspot.com/
E|------------------------------ 0|---------------- 3--------------|
B| 3-- 1-------------------- 1-- 1|------------ 5-- 6------ 6-- 5--|
G| 0-- 0-------- 0---- 0-- 0------|---- 0-- 5------------ 5 5------|
D| 2---------- 2---- 2---- 2------|-- 2---- 5---------- 3-- 3------|
A| 3------------------------------| 3------------------------------|
E|-------- 3------ 0------ 3------|-------- 6------ 5------ 4------|
http://classicalguitartablature.blogspot.com/
E|------------------------ 3------| 0---- 0-------------------- 0--|
B| 3---------------------- 6-- 6--| 1------ 1-- 3-- 1------ 3------|
G|------ 0------ 0---- 0-- 5-- 5--| 0-- 0-- 0------ 3-- 3-- 3------|
D|-- 0------ 0-------- 2------ 3--|---- 2------------ 3---- 2------|
A|---------------------- 5--------| 3------------------------------|
E| 3------ 1------ 0--------------|-------- 0------ 3------ 2------|
http://classicalguitartablature.blogspot.com/
E| 3-- 1--------------------------|------------------------ 0------|
B| 1-- 1------ 1-------- 1--------|---------------- 3------ 3-- 3--|
G|---------- 2------------ 2-- 2--| 0-- 0 4---- 5-- 2-- 2------ 0--|
D|-------------------- 1----------|-- 0---- 3---------- 3------ 0--|
A|-------- 3----------------------|---------------- 0------ 2------|
E| 1-------------- 2------ 2------| 3------ 4----------------------|
http://classicalguitartablature.blogspot.com/
E|--------------------------------|------------------------ 0------|
B| 1------------------------------|---------------- 3------ 3-- 3--|
G| 0---- 0------ 0------ 2 2-- 2--| 0-- 0 4---- 5-- 2-- 2------ 0--|
D|---- 2------ 2-- 3-- 3-- 1------|-- 0---- 3---------- 3------ 0--|
A| 3------------------------------|---------------- 0------ 2------|
E|-------- 0------ 1------ 2------| 3------ 4----------------------|
http://classicalguitartablature.blogspot.com/
E|--------------------------------|------------------------ 0------|
B| 1------------------------------|---------------- 3------ 3-- 3--|
G| 0---- 0------ 0------ 2 2-- 2--| 0-- 0 4---- 5-- 2-- 2------ 0--|
D|---- 2------ 2-- 3-- 3-- 1------|-- 0---- 3---------- 3------ 0--|
A| 3------------------------------|---------------- 0------ 2------|
E|-------- 0------ 1------ 2------| 3------ 4----------------------|
http://classicalguitartablature.blogspot.com/
E|--------------------------------|--------------------------------|
B| 1-------------- 1--------------|--------------------------------|
G| 0-------------- 0--------------|--------------------------------|
D| 2-------------- 2--------------|--------------------------------|
A| 3-- 2-- 0------ 3--------------|--------------------------------|
E|------------ 3------------------|--------------------------------|
http://classicalguitartablature.blogspot.com/
0 com

She Loves You (BASIC)

Beatles' tune fingerstyle chord melody guitar BASIC arrangement played in the key of G.

She Loves You-Beatles- BASIC ARRANGEMENT played in the key of G.
http://classicalguitartablature.blogspot.com/
E|--------------------------------| 0------ 3------ 3------------ 2|
B| 3-------------------------- 3--| 0-------------------------- 0--|
G| 0------------------------------|------------------------ 0------|
D| 0------------------------------|---- 2------ 2------ 2----------|
A|--------------------------------|---------------- 2--------------|
E| 3------------------------------| 0------------------------------|
http://classicalguitartablature.blogspot.com/
E|---------- 0------------------ 0|------ 3------ 3-------------- 2|
B|-------------------------- 3-- 2|-------------------------- 2----|
G|------ 0-------------- 0------ 0|---------------------- 0--------|
D|-- 2-------------- 2------------|-- 2------ 2------ 2------------|
A|-------------- 2-------------- 0|------------------------------ 0|
E| 0------------------------------|---------------- 0--------------|
http://classicalguitartablature.blogspot.com/
http://classicalguitartablature.blogspot.com/
E|------------ 0---------------- 0|------ 3------ 3------------ 3 2|
B|-------------------------- 3----| 1------------------------------|
G|-------- 0------------ 0--------|---- 0------ 0---- 0------------|
D|---- 2-------------- 2----------|--------------------------------|
A|--------------------------------| 3---------------------------- 3|
E|---------------- 0--------------|-------------- 3----------------|
http://classicalguitartablature.blogspot.com/
E|---------- 0--------------------|--------------------------------|
B|------ 1-------------- 1--------| 3------------------------------|
G|-- 0---------------- 0---- 0----| 2---------- 2------ 4----------|
D|--------------------------------| 2------ 2-------------- 5-- 3--|
A|--------------------------------|---------------- 5--------------|
E|-------------- 3----------------| 3------------------------------|
http://classicalguitartablature.blogspot.com/
E|--------------------------------|--------------------------------|
B|--------------------------------|---------------- 0-- 1------ 0--|
G|------------ 0------------------| 0------ 2------ 0-- 0------ 0--|
D|---- 0-- 3---------- 3-- 0-- 3--|---- 0------ 0------ 0------ 2--|
A|--------------------------------|--------------------------------|
E| 3-------------- 3--------------| 3-------------- 3--------------|
http://classicalguitartablature.blogspot.com/
E|--------------------------------|--------------------------------|
B|---------- 0-------------- 1----| 3---- 0------ 0------ 0------ 0|
G|------------ 0-------- 0--------| 2------------------------ 2-- 2|
D|------ 2---------- 2------------| 0-- 0---- 0------ 0---------- 4|
A|--------------------------------| 2---------------------------- 5|
E| 0-------------- 0--------------|---------------- 2--------------|
http://classicalguitartablature.blogspot.com/
E|--------------------------------|--------------------------------|
B|---- 3-- 0----------------------|---------------- 0-- 1------ 0--|
G|---- 2-- 2-------------- 2-- 0--| 0------ 2------ 0-- 0------ 0--|
D|---- 4------ 4------ 4----------|---- 0------ 0------ 0------ 2--|
A|---------------- 0--------------|--------------------------------|
E|--------------------------------| 3-------------- 3--------------|
http://classicalguitartablature.blogspot.com/
E|--------------------------------|--------------------------------|
B|---------- 0-------------- 1----| 3---- 0------ 0------ 0------ 0|
G|------------ 0-------- 0--------| 2------------------------ 2-- 2|
D|------ 2---------- 2------------| 0-- 0---- 0------ 0------------|
A|--------------------------------| 2------------------------------|
E| 0-------------- 0--------------|---------------- 2--------------|
http://classicalguitartablature.blogspot.com/
E|--------------------------------| 0---- 3------------------------|
B|---- 3 0------------ 3 3---- 3--| 3---- 3---------------------- 0|
G|---- 2-- 2---------- 2-- 2-- 2--| 0-------------------- 0-- 2-- 0|
D| 4-- 4 4---- 4------ 4 4---- 4--|------------ 0---- 0------------|
A| 5-------------- 0--------------|--------------------------------|
E|--------------------------------| 3-------------- 3--------------|
http://classicalguitartablature.blogspot.com/
E|--------------------------------|--------------------------------|
B|------ 0------------------------|---------- 0--------------------|
G|---------- 0-- 2------ 0--------|------ 0------ 0------------ 0--|
D| 0 0-------------- 0---------- 2|---------------------- 2--------|
A|--------------------------------|--------------------------------|
E| 3------------ 3-------------- 0|---------------- 0--------------|
http://classicalguitartablature.blogspot.com/
E|--------------------------------|--------------------------------|
B|------------ 0------------------|--------------------------------|
G|-------- 0---------- 0 0-- 0-- 2|------ 2---------- 2------ 2----|
D| 4-------------- 2--------------|-- 1-------- 1-------- 1--------|
A|--------------------------------| 3------------------------------|
E| 0-------------- 0--------------|---------------- 3--------------|
http://classicalguitartablature.blogspot.com/
E|--------------------------------|--------------------------------|
B|-------------- 1------ 4---- 4--|---- 3--------------------------|
G| 2---- 2-------------------- 5--|------------ 5---------- 5------|
D|-- 1------ 1------ 1-------- 4--|-------- 4---------- 4------ 4--|
A| 3-------- 3--------------------| 5------------------------------|
E|-------------- 3----------------|---------------- 5--------------|
http://classicalguitartablature.blogspot.com/
E|--------------------------------| 0------ 3------ 3------------ 2|
B|------------------------ 3------| 0-------------------------- 0--|
G|-------- 5------------------ 5--|------------------------ 0------|
D|---- 4------ 4------ 4----------|---- 2------ 2------ 2----------|
A| 5------------------------------|---------------- 2--------------|
E|---------------- 5--------------| 0------------------------------|
http://classicalguitartablature.blogspot.com/
E|---------- 0------------------ 0|------ 3------ 3---------- 3-- 2|
B|-------------------------- 3-- 2|--------------------------------|
G|------ 0-------------- 0------ 0|---------------------- 0--------|
D|-- 2-------------- 2------------|-- 2-------- 2------ 2----------|
A|-------------- 2----------------| 0------------------------------|
E| 0------------------------------|-------------- 0----------------|
http://classicalguitartablature.blogspot.com/
E|---------- 0--------------------|--------------------------------|
B|---------------------- 2--------|--------------------------------|
G|-------- 0------------------ 0--| 2------ 2------ 2---------- 2--|
D|---- 2-------------- 2----------| 1------ 1------ 1--------------|
A| 0------------------------------| 3------ 3------ 3--------------|
E|---------------- 0--------------|--------------------------------|
http://classicalguitartablature.blogspot.com/
E|--------------------------------|--------------------------------|
B|--------------------------------|--------------------------------|
G| 3------ 3-- 2------ 2------ 0--|------------ 0---------- 0------|
D| 4---------------------- 4------|-------- 0---------- 0------ 0--|
A| 5------------------------------|-------------- 5----------------|
E|---------------- 5--------------| 3------------------------------|
http://classicalguitartablature.blogspot.com/
E|--------------------------------|--------------------------------|
B|------------ 0-------- 0--------|--------------------------------|
G|-------------------------- 0----| 2------ 2------ 2---------- 2--|
D|-------- 2---------- 2----------| 1------ 1------ 1--------------|
A|-------------- 2----------------| 3------ 3------ 3--------------|
E| 0------------------------------|--------------------------------|
http://classicalguitartablature.blogspot.com/
E|--------------------------------|--------------------------------|
B|--------------------------------|--------------------------------|
G| 3------ 3-- 2------ 2------ 0--|------------ 0---------- 0------|
D| 4---------------------- 4------|-------- 0---------- 0------ 0--|
A| 5------------------------------|-------------- 5----------------|
E|---------------- 5--------------| 3------------------------------|
http://classicalguitartablature.blogspot.com/
E|--------------------------------|--------------------------------|
B|------------ 0-------- 0--------|--------------------------------|
G|-------------------------- 0----| 2------ 2------ 2---------- 2--|
D|-------- 2---------- 2----------| 1------ 1------ 1--------------|
A|-------------- 2----------------| 3------ 3------ 3--------------|
E| 0------------------------------|--------------------------------|
http://classicalguitartablature.blogspot.com/
E|--------------------------------|--------------------------------|
B|--------------------------------|--------------------------------|
G|---- 3---- 3--------------------|-- 2------------ 2--------------|
D|-- 4----------------------------|-- 4----------------------------|
A| 5------------------------------| 5------------------------------|
E|--------------------------------|--------------------------------|
http://classicalguitartablature.blogspot.com/
E|--------------------------------|--------------------------------|
B|--------------------------------|--------------------------------|
G|---------------------------- 0--|--------------------------------|
D|-------------------------- 0----|--------------------------------|
A|--------------------------------|--------------------------------|
E|------------------------ 3------|--------------------------------|
http://classicalguitartablature.blogspot.com/
0 com

Because Of You (BASIC)

Kelly Clarkson's tune fingerstyle chord melody guitar BASIC arrangement played in the key of G.

Because Of You-Kelly Clarkson-BASIC ARRANGEMENT played in the key of G.
http://classicalguitartablature.blogspot.com/
E|------------ 7-------- 3--------|------------------------ 7 810--|
B|-------- 810---- 5---- 5------ 8|-------- 7----------------------|
G|---- 9---------- 4------------ 5|-------- 5------ 5--------------|
D|---- 9---------- 5 5------ 5----| 7-- 7------ 7------------------|
A|---------------- 3--------------| 5------------------------------|
E| 0------------------------------|--------------------------------|
http://classicalguitartablature.blogspot.com/
E|------ 7-------------- 3------ 5|--------------------------------|
B| 8---- 8---- 8 5------ 5------ 8|------------ 8 7---------- 7 8--|
G| 9------------ 4-------------- 5|-------- 5---------------- 7----|
D|---- 9------------ 5------ 5-- 7|---- 7------------------ 7------|
A|-------------- 3-------------- 5|--------------------------------|
E| 0------------------------------|--------------------------------|
http://classicalguitartablature.blogspot.com/
http://classicalguitartablature.blogspot.com/
E|--------------------------------|--------------------------------|
B|-- 0-- 0-------- 3------ 3------| 0---- 0-------- 0---- 0---- 0--|
G|-- 0------ 0---- 2---------- 2--| 0---------- 2---- 2------ 5----|
D|-- 0-- 0-------- 0-- 0----------|---- 2-------- 4----------------|
A|---------------- 2--------------|-------------- 5----------------|
E| 3------------------------------| 0------------------------------|
http://classicalguitartablature.blogspot.com/
E|--------------------------------|--------------------------------|
B|-- 0-- 0------ 3----------------| 0---- 0-------- 0---- 0-- 3----|
G|---------- 0------ 2-- 2---- 2--| 0---------- 2------ 2-- 5------|
D|-- 0---------- 0----------------|---- 2-------- 4----------------|
A|-------------- 2----------------|-------------- 5----------------|
E| 3------------------------------| 0---------------------------- 3|
http://classicalguitartablature.blogspot.com/
E|---- 3-- 2 0--------------------|--------------------------------|
B|---- 3-- 3------ 3--------------| 0---- 0-------- 0---- 0---- 0--|
G|---- 0-- 0------ 2---- 2-- 2----| 0---------- 2---- 2------ 5----|
D|-------------- 0---- 0----------|---- 2-------- 4----------------|
A|-------------- 2----------------|-------------- 5----------------|
E|--------------------------------| 0------------------------------|
http://classicalguitartablature.blogspot.com/
E|-- 3-- 3---- 3-- 5 3 3 3---- 3 3|-- 5 5-- 5 3-- 7-- 5 5----------|
B|---- 3 3-------- 3-- 3 3---- 3 0|---- 0-- 0 0-- 5-- 5 5----------|
G|---- 0 0---- 0-- 2 2 2 2-- 2-- 0|---- 0 0 0 0-- 5-- 5 5------ 5--|
D|--------------------------------|------------------------ 5------|
A|---------------- 2--------------|---------------- 5--------------|
E| 3------------------------------| 0------------------------------|
http://classicalguitartablature.blogspot.com/
E|------------------ 7---- 5------| 3-- 3 3 3 3 3 3-- 3 3 3 3 3 3 3|
B| 5-------- 5------ 5---- 5-- 8--| 0-- 0 0 0---- 1-- 1-- 1 1 1 1 1|
G|------ 5---------- 5---- 5------| 0-- 0 0 0 0 0 0-- 0 0 0 0 0 0 0|
D|---- 5--------------------------|--------------------------------|
A|-------------- 5----------------|---------------- 3--------------|
E|--------------------------------| 0------------------------------|
http://classicalguitartablature.blogspot.com/
E|-------------------- 7-- 5------| 3-- 3 3 3 3 3 3-- 3 3 3 3 3 3 3|
B| 8 7-- 7------ 7-- 5-------- 8--| 0-- 0 0 0---- 1-- 1-- 1 1 1 1 1|
G| 5 5-- 5---- 5------------------| 0-- 0 0 0 0 0 0-- 0 0 0 0 0 0 0|
D| 7 7------ 7------ 7------------|--------------------------------|
A| 5------------ 5----------------|---------------- 3--------------|
E|--------------------------------| 0------------------------------|
http://classicalguitartablature.blogspot.com/
E|-------------------- 7----------|------------------------------ 5|
B| 8 7-- 7------ 7--------10-- 8--| 8-- 8 8 8 8 8 8---- 8 8 8 8 8 7|
G| 5 5-- 5---- 5-------- 8-- 8-- 8| 5-- 5 5 5 5 5 7---- 7 7 7 7 7 7|
D| 7 7-- 7-- 7------ 7------------| 5-- 5 5 5 5 5 7---- 7 7 7 7 7--|
A| 5------------------------------|--------------------------------|
E|---------------- 7--------------| 5-------------- 7--------------|
http://classicalguitartablature.blogspot.com/
E|---- 5 5 5---- 7-------------- 7|------ 5------ 3---------- 3----|
B|---- 7 7-- 8-- 7--10-- 8--10 8 5|---- 5------ 5-------- 5------ 8|
G|---- 7 7 7---- 8---- 8-------- 4|-- 4------ 4------ 4---------- 5|
D|-------------------- 7----------|------------------------------ 7|
A| 5---------------------------- 3|------------------------------ 5|
E|---------------- 7--------------|--------------------------------|
http://classicalguitartablature.blogspot.com/
E|--------------------------------|--------------------------------|
B|-- 7------ 7-------- 0 0------ 0|---- 0-- 0-- 1-- 0-- 0-- 0-- 1--|
G|-- 5---- 5-- 5-------------- 5--|---- 2-- 2------ 0-- 0------ 0--|
D|-- 7-- 7------ 7----------------| 0-- 0-- 0------ 2-- 2-- 2-- 2 4|
A|--------------------------------| 2---- 2---------------------- 5|
E|--------------------------------|---------------- 0------ 0------|
http://classicalguitartablature.blogspot.com/
E|--------------------------------|--------------------------------|
B| 0------------------ 0-- 0-- 1 0|---- 0-- 0-- 1-- 0 0-- 0-- 0----|
G|-- 2-- 2------ 2-------- 2------|---- 2-- 2------ 0-- 2-- 2-- 2--|
D|------------ 4---------- 4------| 0-- 0-- 0------ 0------------ 4|
A|-------- 5------ 5------ 5------| 2---- 2---------------------- 5|
E|--------------------------------|---------------- 0---- 0--------|
http://classicalguitartablature.blogspot.com/
E|--------------------------------|--------------------------------|
B| 0-- 3-------------- 0-- 0---- 0|---- 0-- 0-- 1-- 0-- 0-- 0-- 1--|
G|-- 5-------- 5-------------- 5--|---- 2-- 2------ 0-- 0------ 0--|
D|------------ 4------------------| 0-- 0-- 0------ 2-- 2-- 2-- 2 4|
A|-------- 5------ 5------ 5------| 2---- 2---------------------- 5|
E|--------------------------------|---------------- 0------ 0------|
http://classicalguitartablature.blogspot.com/
E|-------------------- 7-- 7 8-- 7|-- 7-- 7---- 8 7-- 7 5 7 5 7 5--|
B| 0---------------------- 5---- 7|-- 7-- 7------ 0------ 0 0------|
G|-- 2-- 2------ 2---- 5-- 5------|---- 7 7---- 7 0-- 0 0 0 0 0 0--|
D|------------ 4------------------|--------------------------------|
A|-------- 5------ 5------ 5------|--------------------------------|
E|------------------------------ 7|---------------- 0------ 0------|
http://classicalguitartablature.blogspot.com/
E| 7-- 8------10------------------|-------------------- 7-- 5-- 3--|
B|---- 5------ 8------------ 8----|------ 8---- 8------------------|
G| 5-- 5------ 9-------- 9------ 9|-- 9------ 9-------- 7-- 5-- 4--|
D|--------------------10----------|--10------10--------------------|
A| 5------ 5----------------------|--------------------------------|
E|----------------10------10------|10------10----10----------------|
http://classicalguitartablature.blogspot.com/
E| 3-- 3 3 3 3 3 3-- 3 3 3 3 3 3 3|-------------------- 7-- 5------|
B| 0-- 0 0 0---- 1-- 1-- 1 1 1 1 1| 8 7-- 7------ 7-- 5-------- 8--|
G| 0-- 0 0 0 0 0 0-- 0 0 0 0 0 0 0| 5 5-- 5---- 5------------------|
D|--------------------------------| 7 7------ 7------ 7------------|
A|---------------- 3--------------| 5------------ 5----------------|
E| 0------------------------------|--------------------------------|
http://classicalguitartablature.blogspot.com/
E| 3-- 3 3 3 3 3 3-- 3 3 3 3 3 3 3|-------------------- 7----------|
B| 0-- 0 0 0---- 1-- 1-- 1 1 1 1 1| 8 7-- 7------ 7--------10-- 8--|
G| 0-- 0 0 0 0 0 0-- 0 0 0 0 0 0 0| 5 5-- 5---- 5-------- 8-- 8-- 8|
D|--------------------------------| 7 7-- 7-- 7------ 7------------|
A|---------------- 3--------------| 5------------------------------|
E| 0------------------------------|---------------- 7--------------|
http://classicalguitartablature.blogspot.com/
E|------------------------------ 5|---- 5 5 5---- 7-------------- 7|
B| 8-- 8 8 8 8 8 8---- 8 8 8 8 8 7|---- 7 7-- 8-- 7--10-- 8--10 8 5|
G| 5-- 5 5 5 5 5 7---- 7 7 7 7 7 7|---- 7 7 7---- 8---- 8-------- 4|
D| 5-- 5 5 5 5 5 7---- 7 7 7 7 7--|-------------------- 7----------|
A|--------------------------------| 5---------------------------- 3|
E| 5-------------- 7--------------|---------------- 7--------------|
http://classicalguitartablature.blogspot.com/
E|------ 5------ 3---------- 3----|--------------------------------|
B|---- 5------ 5-------- 5------ 8|-- 7------ 7-------- 7-- 7-- 8--|
G|-- 4------ 4------ 4---------- 5|-- 5---- 5---- 5----------------|
D|------------------------------ 7|-- 7 7---------- 7--------------|
A|------------------------------ 5|--------------------------------|
E|--------------------------------|--------------------------------|
http://classicalguitartablature.blogspot.com/
E|-------- 7-- 5---------- 3------|--------------------------------|
B| 8---------- 5------ 5------ 7--|------ 7------------ 7-- 7-- 8--|
G| 9-- 9------ 4------ 4----------|---- 5---- 5-- 5----------------|
D|---- 9--------------------------|---- 7------ 7------------------|
A|---------------- 3--------------| 5------------------------------|
E| 0------------------------------|--------------------------------|
http://classicalguitartablature.blogspot.com/
E|-------- 7-- 5---------- 3------|--------------------------------|
B| 8---------- 5------ 5------ 7--|------ 7------------ 7-- 7-- 8--|
G| 9-- 9------ 4------ 4----------|---- 5---- 5-- 5----------------|
D|---- 9--------------------------|---- 7------ 7------------------|
A|---------------- 3--------------| 5------------------------------|
E| 0------------------------------|------------------------------ 3|
http://classicalguitartablature.blogspot.com/
E| 3------------------------------|--------------------------------|
B| 3------------------------------|--------------------------------|
G| 0---- 0------------------------|--------------------------------|
D|---- 0--------------------------|--------------------------------|
A|--------------------------------|--------------------------------|
E|--------------------------------|--------------------------------|
http://classicalguitartablature.blogspot.com/
0 com

Chariots Of Fire (BASIC)

Vangelis' tune fingerstyle chord melody guitar BASIC arrangement played in the key of A.

Chariots Of Fire-Vangelis- BASIC ARRANGEMENT played in the key of A.
http://classicalguitartablature.blogspot.com/
E|--------------------------------|--------------------------------|
B|--------------------------------|--------------------------------|
G|---------------- 2--------------|---------------- 2--------------|
D|---------------- 2--------------|---------------- 2--------------|
A| 0-- 0-- 0-- 0-- 0-- 0-- 0-- 0--| 0-- 0-- 0-- 0-- 0-- 0-- 0-- 0--|
E|--------------------------------|--------------------------------|
http://classicalguitartablature.blogspot.com/
E|--------------------------------|---------------------------- 2--|
B|--------------------------------|---------------- 3-- 5---- 3----|
G|---------------- 2--------------|-------- 2------ 2-- 2----------|
D|---------------- 2--------------|-------- 2---- 4------ 4--------|
A| 0 0---- 0-- 0-- 0-- 0-- 0-- 0--| 0-- 0-- 0-- 0-- 0---- 0---- 0--|
E|--------------------------------|--------------------------------|
http://classicalguitartablature.blogspot.com/
http://classicalguitartablature.blogspot.com/
E|--------------------------------|---------------------------- 2--|
B| 5-------------- 2--------------|---------------- 3-- 5---- 3----|
G| 2-------------- 2--------------|-------- 2------ 2-- 2----------|
D| 2-------------- 2--------------|-------- 2---- 4------ 4--------|
A| 0-- 0-- 0-- 0-- 0-- 0-- 0-- 0--| 0-- 0-- 0-- 0-- 0---- 0---- 0--|
E|--------------------------------|--------------------------------|
http://classicalguitartablature.blogspot.com/
E|--------------------------------|---------------------------- 2--|
B| 5------------------------------|---------------- 3-- 5---- 3----|
G| 2-------------- 2--------------|-------- 2------ 2-- 2----------|
D| 2-------------- 2--------------|-------- 2---- 4------ 4--------|
A| 0-- 0-- 0-- 0-- 0-- 0-- 0-- 0--| 0-- 0-- 0-- 0-- 0---- 0---- 0--|
E|--------------------------------|--------------------------------|
http://classicalguitartablature.blogspot.com/
E|--------------------------------|--------------------------------|
B| 5-------------- 2--------------|------ 2------ 3---- 2----------|
G| 2-------------- 2--------------|------ 2------ 2---- 2---- 2----|
D| 2-------------- 2--------------|-------------- 2----------------|
A| 0-- 0-- 0-- 0-- 0-- 0-- 0-- 0--| 0-- 0-- 0 0--------------------|
E|--------------------------------|---------------- 0---- 0---- 0--|
http://classicalguitartablature.blogspot.com/
E|--------------------------------|---------------------------- 2--|
B|--------------------------------|---------------- 3-- 5---- 3----|
G| 2------------------------------|-------- 2------ 2-- 2----------|
D|---------------- 2--------------|-------- 2---- 4------ 4--------|
A| 0-- 0-- 0-- 0-- 0-- 0-- 0-- 0--| 0-- 0-- 0-- 0-- 0---- 0---- 0--|
E|--------------------------------|--------------------------------|
http://classicalguitartablature.blogspot.com/
E|--------------------------------|---------------------------- 2--|
B| 5-------------- 2--------------|---------------- 3-- 5---- 3----|
G| 2-------------- 2--------------|-------- 2------ 2-- 2----------|
D| 2-------------- 2--------------|-------- 2---- 4------ 4--------|
A| 0-- 0-- 0-- 0-- 0-- 0-- 0-- 0--| 0-- 0-- 0-- 0-- 0---- 0---- 0--|
E|--------------------------------|--------------------------------|
http://classicalguitartablature.blogspot.com/
E|--------------------------------|---------------------------- 2--|
B| 5------------------------------|---------------- 3-- 5---- 3----|
G| 2-------------- 2--------------|-------- 2------ 2-- 2----------|
D| 2-------------- 2--------------|-------- 2---- 4------ 4--------|
A| 0-- 0-- 0-- 0-- 0-- 0-- 0-- 0--| 0-- 0-- 0-- 0-- 0---- 0---- 0--|
E|--------------------------------|--------------------------------|
http://classicalguitartablature.blogspot.com/
E|--------------------------------|--------------------------------|
B| 5-------------- 2--------------|------ 2------ 3---- 2----------|
G| 2-------------- 2--------------|------ 2------ 2---- 2---- 2----|
D| 2-------------- 2--------------|-------------- 2----------------|
A| 0-- 0-- 0-- 0-- 0-- 0-- 0-- 0--| 0-- 0-- 0 0--------------------|
E|--------------------------------|---------------- 0---- 0---- 0--|
http://classicalguitartablature.blogspot.com/
E|--------------------------------|------ 5------ 4---- 2----------|
B|--------------------------------|------ 2------ 2------ 2-- 5----|
G| 2------------------------------|-------- 2---- 2------------ 2--|
D|---------------- 2--------------|---------------------------- 2--|
A| 0-- 0-- 0-- 0-- 0-- 0-- 0-- 0--| 0-- 0-- 0 0---- 0---- 0---- 0--|
E|--------------------------------|--------------------------------|
http://classicalguitartablature.blogspot.com/
E| 4------------ 2----------------|------ 5------ 4---- 2----------|
B| 5---------- 5-- 3---------- 3--| 5---- 5------ 2---- 2---- 5----|
G| 6---------- 6-- 2---------- 2--| 2------------------ 2---- 2----|
D|------------ 6-------------- 4--| 2-------------------------- 2--|
A| 4-- 4-- 4-- 4-- 5-- 5-- 5-- 5--| 0-- 0-- 0-- 0-- 0---- 0---- 0--|
E|--------------------------------|--------------------------------|
http://classicalguitartablature.blogspot.com/
E| 4-------------- 0--------------|-------- 5---- 4---- 2----------|
B| 5-------------- 0--------------|---------------- 2---- 2---- 5--|
G| 6-------------- 1--------------| 2-------------- 2---- 2---- 2--|
D|---------------------- 2--------| 2-------------------------- 2--|
A| 4-- 4-- 4-- 4------------------| 0-- 0-- 0-- 0-- 0---- 0---- 0--|
E|---------------- 0-- 0-- 0-- 0--|--------------------------------|
http://classicalguitartablature.blogspot.com/
E| 4------------ 2----------------|--------------------------------|
B| 5---------- 5-- 3---------- 3--| 5------ 2------ 3---- 2--------|
G| 6---------- 6-- 2---------- 2--| 2------ 2------ 2---- 2---- 2--|
D|------------ 6-------------- 4--| 2-------------- 2--------------|
A| 4-- 4-- 4-- 4-- 5-- 5-- 5-- 5--| 0-- 0-- 0-- 0------------------|
E|--------------------------------|---------------- 0---- 0---- 0--|
http://classicalguitartablature.blogspot.com/
E|--------------------------------|------ 5------ 4---- 2----------|
B|--------------------------------|------ 2------ 2------ 2-- 5----|
G| 2------------------------------|-------- 2---- 2------------ 2--|
D|---------------- 2--------------|---------------------------- 2--|
A| 0-- 0-- 0-- 0-- 0-- 0-- 0-- 0--| 0-- 0-- 0 0---- 0---- 0---- 0--|
E|--------------------------------|--------------------------------|
http://classicalguitartablature.blogspot.com/
E| 4------------ 2----------------|------ 5------ 4---- 2----------|
B| 5---------- 5-- 3---------- 3--| 5---- 5------ 2---- 2---- 5----|
G| 6---------- 6-- 2---------- 2--| 2------------------ 2---- 2----|
D|------------ 6-------------- 4--| 2-------------------------- 2--|
A| 4-- 4-- 4-- 4-- 5-- 5-- 5-- 5--| 0-- 0-- 0-- 0-- 0---- 0---- 0--|
E|--------------------------------|--------------------------------|
http://classicalguitartablature.blogspot.com/
E| 4-------------- 0--------------|-------- 5---- 4---- 2----------|
B| 5-------------- 0--------------|---------------- 2---- 2---- 5--|
G| 6-------------- 1--------------| 2-------------- 2---- 2---- 2--|
D|---------------------- 2--------| 2-------------------------- 2--|
A| 4-- 4-- 4-- 4------------------| 0-- 0-- 0-- 0-- 0---- 0---- 0--|
E|---------------- 0-- 0-- 0-- 0--|--------------------------------|
http://classicalguitartablature.blogspot.com/
E| 4------------ 2----------------|--------------------------------|
B| 5---------- 5-- 3---------- 3--| 5------ 2------ 3---- 2--------|
G| 6---------- 6-- 2---------- 2--| 2------ 2------ 2---- 2---- 2--|
D|------------ 6-------------- 4--| 2-------------- 2--------------|
A| 4-- 4-- 4-- 4-- 5-- 5-- 5-- 5--| 0-- 0-- 0-- 0------------------|
E|--------------------------------|---------------- 0---- 0---- 0--|
http://classicalguitartablature.blogspot.com/
E|--------------------------------|---------------------------- 2--|
B|--------------------------------|---------------- 3-- 5---- 3----|
G| 2------------------------------|-------- 2------ 2-- 2----------|
D|---------------- 2--------------|-------- 2---- 4------ 4--------|
A| 0-- 0-- 0-- 0-- 0-- 0-- 0-- 0--| 0-- 0-- 0-- 0-- 0---- 0---- 0--|
E|--------------------------------|--------------------------------|
http://classicalguitartablature.blogspot.com/
E|--------------------------------|---------------------------- 2--|
B| 5-------------- 2--------------|---------------- 3-- 5---- 3----|
G| 2-------------- 2--------------|-------- 2------ 2-- 2----------|
D| 2-------------- 2--------------|-------- 2---- 4------ 4--------|
A| 0-- 0-- 0-- 0-- 0-- 0-- 0-- 0--| 0-- 0-- 0-- 0-- 0---- 0---- 0--|
E|--------------------------------|--------------------------------|
http://classicalguitartablature.blogspot.com/
E|--------------------------------|---------------------------- 2--|
B| 5------------------------------|---------------- 3-- 5---- 3----|
G| 2-------------- 2--------------|-------- 2------ 2-- 2----------|
D| 2-------------- 2--------------|-------- 2---- 4------ 4--------|
A| 0-- 0-- 0-- 0-- 0-- 0-- 0-- 0--| 0-- 0-- 0-- 0-- 0---- 0---- 0--|
E|--------------------------------|--------------------------------|
http://classicalguitartablature.blogspot.com/
E|--------------------------------|--------------------------------|
B| 5-------------- 2--------------|------ 2------ 3---- 2----------|
G| 2-------------- 2--------------|------ 2------ 2---- 2---- 2----|
D| 2-------------- 2--------------|-------------- 2----------------|
A| 0-- 0-- 0-- 0-- 0-- 0-- 0-- 0--| 0-- 0-- 0 0--------------------|
E|--------------------------------|---------------- 0---- 0---- 0--|
http://classicalguitartablature.blogspot.com/
E|--------------------------------|---------------------------- 2--|
B|--------------------------------|---------------- 3-- 5---- 3----|
G| 2------------------------------|-------- 2------ 2-- 2----------|
D|---------------- 2--------------|-------- 2---- 4------ 4--------|
A| 0-- 0-- 0-- 0-- 0-- 0-- 0-- 0--| 0-- 0-- 0-- 0-- 0---- 0---- 0--|
E|--------------------------------|--------------------------------|
http://classicalguitartablature.blogspot.com/
E|--------------------------------|-------------- 5---- 4------ 2--|
B| 5-------------- 2--------------|-------------- 2---- 2----------|
G| 2-------------- 2--------------|-------- 2---------- 2------ 2--|
D| 2-------------- 2--------------|--------------------------------|
A| 0-- 0-- 0-- 0-- 0-- 0-- 0-- 0--| 0-- 0-- 0-- 0-- 0---- 0---- 0--|
E|--------------------------------|--------------------------------|
http://classicalguitartablature.blogspot.com/
E|--------------------------------|-------------- 5---- 4------ 2--|
B| 5------------------------------|-------------- 2---- 2----------|
G| 2-------------- 2--------------|-------- 2---------- 2------ 2--|
D| 2-------------- 2--------------|--------------------------------|
A| 0-- 0-- 0-- 0-- 0-- 0-- 0-- 0--| 0-- 0-- 0-- 0-- 0---- 0---- 0--|
E|--------------------------------|--------------------------------|
http://classicalguitartablature.blogspot.com/
E|--------------------------------|--------------------------------|
B| 5-------------- 2--------------|------ 2------ 3---- 2----------|
G| 2-------------- 2--------------|------ 2------ 2---- 2---- 2----|
D| 2-------------- 2--------------|-------------- 2----------------|
A| 0-- 0-- 0-- 0-- 0-- 0-- 0-- 0--| 0-- 0-- 0 0--------------------|
E|--------------------------------|---------------- 0---- 0---- 0--|
http://classicalguitartablature.blogspot.com/
E|--------------------------------|--------------------------------|
B|--------------------------------|------ 2------ 3---- 2----------|
G| 2------------------------------|------ 2------ 2---- 2---- 2----|
D|---------------- 2--------------|-------------- 2----------------|
A| 0-- 0-- 0-- 0-- 0-- 0-- 0-- 0--| 0-- 0-- 0 0--------------------|
E|--------------------------------|---------------- 0---- 0---- 0--|
http://classicalguitartablature.blogspot.com/
E|--------------------------------|--------------------------------|
B|--------------------------------|------ 2------ 3---- 2----------|
G| 2------------------------------|------ 2------ 2---- 2---- 2----|
D|---------------- 2--------------|-------------- 2----------------|
A| 0-- 0-- 0-- 0-- 0-- 0-- 0-- 0--| 0-- 0-- 0 0--------------------|
E|--------------------------------|---------------- 0---- 0---- 0--|
http://classicalguitartablature.blogspot.com/
E|--------------------------------|--------------------------------|
B|--------------------------------|-------- 2-------- 3-------- 2--|
G| 2------------------------------|-------------- 2-- 2------------|
D|---------------- 2--------------|---- 2------------ 2------------|
A| 0-- 0-- 0-- 0-- 0-- 0-- 0-- 0--| 0------------------------------|
E|--------------------------------|------------------ 0------------|
http://classicalguitartablature.blogspot.com/
E|--------------------------------|--------------------------------|
B|--------------------------------|--------------------------------|
G|-------- 2----------------------|---------------------- 2--------|
D|--------------------------------|-------------------- 2----------|
A|--------------------------------|------------------ 0------------|
E|--------------------------------|--------------------------------|
http://classicalguitartablature.blogspot.com/