To celebrate the anniversary, I am giving you (finally...) : iPhone LickByNeck !!!!!!

Abrazame (BASIC)

Julio Iglesias' tune fingerstyle chord melody guitar BASIC arrangement played in the key of Em.

Abrazame-Julio Iglesias-BASIC ARRANGEMENT played in the key of Em.
http://classicalguitartablature.blogspot.com/
E|-- 3-- 2 0 2 3 5------------ 5--| 3 2 2-- 3-- 7 8 7 5------------|
B|-- 0-------------- 8 7 5 7 8----| 5-- 5------ 7------ 8 7 8-- 7 5|
G|-- 0-------------- 5---------- 4|------------ 5---------- 7-- 7 7|
D|------------------ 7------------|------------------------ 5-- 5 5|
A|---------------- 6------------ 5|---------- 6--------------------|
E| 0------------------------------|------------------------ 0------|
http://classicalguitartablature.blogspot.com/
E|---- 5---------- 5 3-- 2-- 2 5--| 7 8 7 5------------------------|
B| 7 8-- 8 7 5 7 8-- 5---- 5------| 7------ 8 7------ 0------------|
G| 7 7---- 5 5 5 5-- 4---------- 5|--------------------------------|
D| 5 5-- 7 7 7 7 7----------------|--------------------------------|
A|------ 6---------- 5---------- 6|--------------------------------|
E|--------------------------------|------------------------------ 0|
http://classicalguitartablature.blogspot.com/
http://classicalguitartablature.blogspot.com/
E|---- 3 3------------------ 3----| 3 2-- 2-- 0--------------------|
B| 0-- 0 0------------------------|------ 1------ 5-- 3-- 3--------|
G| 0---------------- 0---------- 0|------ 2------ 4------ 4-- 4----|
D| 2---------- 2-- 1---- 0--------|-------------- 2------ 3------ 2|
A|--------------------------------|------------------------------ 0|
E|------------------------------ 0|------ 2------ 3------ 4--------|
http://classicalguitartablature.blogspot.com/
E|---- 3 3------------------ 3----|-------- 2 0---- 0--------------|
B| 1-- 1-- 1---------------- 1----| 8-- 7---------- 3 3---- 3------|
G|-------- 0---- 0---------- 0----| 5---- 2------ 2-- 2---- 2-- 2--|
D|------------ 2---- 0---------- 5|------------------ 0-- 0------ 0|
A|---------------- 2------ 3---- 5|--------------------------------|
E|--------------------------------|------ 0------ 1------ 2------ 3|
http://classicalguitartablature.blogspot.com/
E|--------------------------------|--------------------------------|
B| 0 3-- 3------------ 3----------|-- 0-- 0-------------------- 0--|
G| 0 0-- 0------ 0------------ 0 2|---------- 2------------ 2------|
D|-- 0-- 0---- 0-------- 0------ 2|-------------------- 1----------|
A|--------------------------------|--------------------------------|
E|------------------------------ 2|-------------- 1-------------- 0|
http://classicalguitartablature.blogspot.com/
E|---- 3 3------------------ 3----| 3 2-- 2-- 0--------------------|
B| 0-- 0 0------------------------|------ 1------ 5-- 3-- 3--------|
G| 0---------------- 0---------- 0|------ 2------ 4------ 4-- 4----|
D| 2---------- 2-- 1---- 0--------|-------------- 2------ 3------ 2|
A|--------------------------------|------------------------------ 0|
E|------------------------------ 0|------ 2------ 3------ 4--------|
http://classicalguitartablature.blogspot.com/
E|---- 3 3------------------ 3----|-------- 2 0---- 0--------------|
B| 1-- 1-- 1---------------- 1----| 8-- 7---------- 3 3---- 3------|
G|-------- 0---- 0---------- 0----| 5---- 2------ 2-- 2---- 2-- 2--|
D|------------ 2---- 0---------- 5|------------------ 0-- 0------ 0|
A|---------------- 2------ 3---- 5|--------------------------------|
E|--------------------------------|------ 0------ 1------ 2------ 3|
http://classicalguitartablature.blogspot.com/
E|--------------------------------|---------------------------- 7--|
B| 0 3-- 3------------ 3----------|---- 0-- 0------------ 8--------|
G| 0 0-- 0------ 0------------ 0--| 2---------- 2-------- 8------ 5|
D|-- 0-- 0---- 0-------- 0--------| 2---------------- 7------------|
A|--------------------------------|------------------------------ 0|
E|--------------------------------| 2-------------- 7--------------|
http://classicalguitartablature.blogspot.com/
E| 7 8-- 8------------------ 8----| 8 7---- 7-- 5-- 5-- 3-- 3-- 5--|
B| 5 5-- 5------------ 7----10----| 5-- 5-- 5-- 5-- 3-- 3-- 3------|
G|-- 5-------- 5---- 7------ 9----| 5-- 5 5---- 5 2---- 2-- 3------|
D|-------------- 5-- 7----10------|------------------------------ 9|
A|------------------------------ 5|------------------------------10|
E|---------------- 7------ 8------|------ 0------ 1------ 2--------|
http://classicalguitartablature.blogspot.com/
E|-- 7---- 7------------------ 7--| 7-------------- 3-- 2-- 2-- 0--|
B|10------10------------ 8--------| 8--10--10-- 8-- 1------ 1------|
G| 7---- 7---- 7------ 7-------- 9|-------- 7-- 7-- 2---- 2--------|
D|------ 7---- 7---- 9------ 9----|-------- 9-- 9------------------|
A|------ 9-------- 7--------------|-------------- 0----------------|
E|------------------------10---- 8|------ 7-------------- 3------ 2|
http://classicalguitartablature.blogspot.com/
E|-- 5-- 5-------------------- 5--| 5------ 3-- 2-- 3 2---- 0-- 2--|
B| 5-- 5 5-------------- 5--------| 8-- 8-- 5------ 5------ 1------|
G| 5 5-- 5------ 5---- 5---- 5----| 5-- 5 4------ 2------ 2------ 0|
D| 4-------- 4------ 4-- 4--------|---- 7--------------------------|
A|------------------------------ 6|------ 4------ 3------ 2--------|
E|---------------- 0--------------|------------------------------ 0|
http://classicalguitartablature.blogspot.com/
E| 3---------- 4-------------- 7--| 7 8-- 8------------------ 8----|
B| 0---------- 6------------ 8----| 5 5-- 5------------ 7----10----|
G|-------- 2-- 4---------- 7---- 5|-- 5-------- 5---- 7------ 9----|
D|---- 0-- 1---------- 6----------|-------------- 5-- 7----10------|
A|------------------------------ 0|------------------------------ 5|
E|-------- 2------ 4---- 6--------|---------------- 7------ 8------|
http://classicalguitartablature.blogspot.com/
E| 8 7---- 7-- 5-- 5-- 3-- 3-- 5--|-- 7---- 7------------------ 7--|
B| 5-- 5-- 5-- 5-- 3-- 3-- 3------|10------10------------ 8--------|
G| 5-- 5 5---- 5 2---- 2-- 3------| 7---- 7---- 7------ 7-------- 9|
D|------------------------------ 9|------ 7---- 7---- 9------ 9----|
A|------------------------------10|------ 9-------- 7--------------|
E|------ 0------ 1------ 2--------|------------------------10---- 8|
http://classicalguitartablature.blogspot.com/
E| 7-------------- 3-- 2-- 2-- 0--|-- 5-- 5-------------------- 5--|
B| 8--10--10-- 8-- 1------ 1------| 5-- 5 5-------------- 5--------|
G|-------- 7-- 7-- 2---- 2--------| 5 5-- 5------ 5---- 5---- 5----|
D|-------- 9-- 9------------------| 4-------- 4------ 4-- 4--------|
A|-------------- 0----------------|------------------------------ 6|
E|------ 7-------------- 3------ 2|---------------- 0--------------|
http://classicalguitartablature.blogspot.com/
E| 5------ 3-- 2-- 3 2---- 0------| 0------------------------------|
B| 8-- 8-- 5------ 5------ 4 4----|------------ 1-------------- 1--|
G| 5-- 5 4------ 2------ 5-- 5----| 2------ 2-------------- 2------|
D|---- 7---------------------- 7--|---- 2-------------- 2----------|
A|------ 4------ 3-------------- 0|--------------------------------|
E|---------------------- 7--------|---------------- 3--------------|
http://classicalguitartablature.blogspot.com/
E|--------------------------------|--------------------------------|
B|---------- 1---------------- 1--|---- 2--------------------------|
G|-------- 2-------------- 2------|-- 0----------------------------|
D|---- 2-------------- 1----------|-- 2----------------------------|
A|--------------------------------|--------------------------------|
E| 2-------------- 1--------------| 0------------------------------|
http://classicalguitartablature.blogspot.com/

0 ความคิดเห็น:

แสดงความคิดเห็น