To celebrate the anniversary, I am giving you (finally...) : iPhone LickByNeck !!!!!!

Because Of You (BASIC)

Kelly Clarkson's tune fingerstyle chord melody guitar BASIC arrangement played in the key of G.

Because Of You-Kelly Clarkson-BASIC ARRANGEMENT played in the key of G.
http://classicalguitartablature.blogspot.com/
E|------------ 7-------- 3--------|------------------------ 7 810--|
B|-------- 810---- 5---- 5------ 8|-------- 7----------------------|
G|---- 9---------- 4------------ 5|-------- 5------ 5--------------|
D|---- 9---------- 5 5------ 5----| 7-- 7------ 7------------------|
A|---------------- 3--------------| 5------------------------------|
E| 0------------------------------|--------------------------------|
http://classicalguitartablature.blogspot.com/
E|------ 7-------------- 3------ 5|--------------------------------|
B| 8---- 8---- 8 5------ 5------ 8|------------ 8 7---------- 7 8--|
G| 9------------ 4-------------- 5|-------- 5---------------- 7----|
D|---- 9------------ 5------ 5-- 7|---- 7------------------ 7------|
A|-------------- 3-------------- 5|--------------------------------|
E| 0------------------------------|--------------------------------|
http://classicalguitartablature.blogspot.com/
http://classicalguitartablature.blogspot.com/
E|--------------------------------|--------------------------------|
B|-- 0-- 0-------- 3------ 3------| 0---- 0-------- 0---- 0---- 0--|
G|-- 0------ 0---- 2---------- 2--| 0---------- 2---- 2------ 5----|
D|-- 0-- 0-------- 0-- 0----------|---- 2-------- 4----------------|
A|---------------- 2--------------|-------------- 5----------------|
E| 3------------------------------| 0------------------------------|
http://classicalguitartablature.blogspot.com/
E|--------------------------------|--------------------------------|
B|-- 0-- 0------ 3----------------| 0---- 0-------- 0---- 0-- 3----|
G|---------- 0------ 2-- 2---- 2--| 0---------- 2------ 2-- 5------|
D|-- 0---------- 0----------------|---- 2-------- 4----------------|
A|-------------- 2----------------|-------------- 5----------------|
E| 3------------------------------| 0---------------------------- 3|
http://classicalguitartablature.blogspot.com/
E|---- 3-- 2 0--------------------|--------------------------------|
B|---- 3-- 3------ 3--------------| 0---- 0-------- 0---- 0---- 0--|
G|---- 0-- 0------ 2---- 2-- 2----| 0---------- 2---- 2------ 5----|
D|-------------- 0---- 0----------|---- 2-------- 4----------------|
A|-------------- 2----------------|-------------- 5----------------|
E|--------------------------------| 0------------------------------|
http://classicalguitartablature.blogspot.com/
E|-- 3-- 3---- 3-- 5 3 3 3---- 3 3|-- 5 5-- 5 3-- 7-- 5 5----------|
B|---- 3 3-------- 3-- 3 3---- 3 0|---- 0-- 0 0-- 5-- 5 5----------|
G|---- 0 0---- 0-- 2 2 2 2-- 2-- 0|---- 0 0 0 0-- 5-- 5 5------ 5--|
D|--------------------------------|------------------------ 5------|
A|---------------- 2--------------|---------------- 5--------------|
E| 3------------------------------| 0------------------------------|
http://classicalguitartablature.blogspot.com/
E|------------------ 7---- 5------| 3-- 3 3 3 3 3 3-- 3 3 3 3 3 3 3|
B| 5-------- 5------ 5---- 5-- 8--| 0-- 0 0 0---- 1-- 1-- 1 1 1 1 1|
G|------ 5---------- 5---- 5------| 0-- 0 0 0 0 0 0-- 0 0 0 0 0 0 0|
D|---- 5--------------------------|--------------------------------|
A|-------------- 5----------------|---------------- 3--------------|
E|--------------------------------| 0------------------------------|
http://classicalguitartablature.blogspot.com/
E|-------------------- 7-- 5------| 3-- 3 3 3 3 3 3-- 3 3 3 3 3 3 3|
B| 8 7-- 7------ 7-- 5-------- 8--| 0-- 0 0 0---- 1-- 1-- 1 1 1 1 1|
G| 5 5-- 5---- 5------------------| 0-- 0 0 0 0 0 0-- 0 0 0 0 0 0 0|
D| 7 7------ 7------ 7------------|--------------------------------|
A| 5------------ 5----------------|---------------- 3--------------|
E|--------------------------------| 0------------------------------|
http://classicalguitartablature.blogspot.com/
E|-------------------- 7----------|------------------------------ 5|
B| 8 7-- 7------ 7--------10-- 8--| 8-- 8 8 8 8 8 8---- 8 8 8 8 8 7|
G| 5 5-- 5---- 5-------- 8-- 8-- 8| 5-- 5 5 5 5 5 7---- 7 7 7 7 7 7|
D| 7 7-- 7-- 7------ 7------------| 5-- 5 5 5 5 5 7---- 7 7 7 7 7--|
A| 5------------------------------|--------------------------------|
E|---------------- 7--------------| 5-------------- 7--------------|
http://classicalguitartablature.blogspot.com/
E|---- 5 5 5---- 7-------------- 7|------ 5------ 3---------- 3----|
B|---- 7 7-- 8-- 7--10-- 8--10 8 5|---- 5------ 5-------- 5------ 8|
G|---- 7 7 7---- 8---- 8-------- 4|-- 4------ 4------ 4---------- 5|
D|-------------------- 7----------|------------------------------ 7|
A| 5---------------------------- 3|------------------------------ 5|
E|---------------- 7--------------|--------------------------------|
http://classicalguitartablature.blogspot.com/
E|--------------------------------|--------------------------------|
B|-- 7------ 7-------- 0 0------ 0|---- 0-- 0-- 1-- 0-- 0-- 0-- 1--|
G|-- 5---- 5-- 5-------------- 5--|---- 2-- 2------ 0-- 0------ 0--|
D|-- 7-- 7------ 7----------------| 0-- 0-- 0------ 2-- 2-- 2-- 2 4|
A|--------------------------------| 2---- 2---------------------- 5|
E|--------------------------------|---------------- 0------ 0------|
http://classicalguitartablature.blogspot.com/
E|--------------------------------|--------------------------------|
B| 0------------------ 0-- 0-- 1 0|---- 0-- 0-- 1-- 0 0-- 0-- 0----|
G|-- 2-- 2------ 2-------- 2------|---- 2-- 2------ 0-- 2-- 2-- 2--|
D|------------ 4---------- 4------| 0-- 0-- 0------ 0------------ 4|
A|-------- 5------ 5------ 5------| 2---- 2---------------------- 5|
E|--------------------------------|---------------- 0---- 0--------|
http://classicalguitartablature.blogspot.com/
E|--------------------------------|--------------------------------|
B| 0-- 3-------------- 0-- 0---- 0|---- 0-- 0-- 1-- 0-- 0-- 0-- 1--|
G|-- 5-------- 5-------------- 5--|---- 2-- 2------ 0-- 0------ 0--|
D|------------ 4------------------| 0-- 0-- 0------ 2-- 2-- 2-- 2 4|
A|-------- 5------ 5------ 5------| 2---- 2---------------------- 5|
E|--------------------------------|---------------- 0------ 0------|
http://classicalguitartablature.blogspot.com/
E|-------------------- 7-- 7 8-- 7|-- 7-- 7---- 8 7-- 7 5 7 5 7 5--|
B| 0---------------------- 5---- 7|-- 7-- 7------ 0------ 0 0------|
G|-- 2-- 2------ 2---- 5-- 5------|---- 7 7---- 7 0-- 0 0 0 0 0 0--|
D|------------ 4------------------|--------------------------------|
A|-------- 5------ 5------ 5------|--------------------------------|
E|------------------------------ 7|---------------- 0------ 0------|
http://classicalguitartablature.blogspot.com/
E| 7-- 8------10------------------|-------------------- 7-- 5-- 3--|
B|---- 5------ 8------------ 8----|------ 8---- 8------------------|
G| 5-- 5------ 9-------- 9------ 9|-- 9------ 9-------- 7-- 5-- 4--|
D|--------------------10----------|--10------10--------------------|
A| 5------ 5----------------------|--------------------------------|
E|----------------10------10------|10------10----10----------------|
http://classicalguitartablature.blogspot.com/
E| 3-- 3 3 3 3 3 3-- 3 3 3 3 3 3 3|-------------------- 7-- 5------|
B| 0-- 0 0 0---- 1-- 1-- 1 1 1 1 1| 8 7-- 7------ 7-- 5-------- 8--|
G| 0-- 0 0 0 0 0 0-- 0 0 0 0 0 0 0| 5 5-- 5---- 5------------------|
D|--------------------------------| 7 7------ 7------ 7------------|
A|---------------- 3--------------| 5------------ 5----------------|
E| 0------------------------------|--------------------------------|
http://classicalguitartablature.blogspot.com/
E| 3-- 3 3 3 3 3 3-- 3 3 3 3 3 3 3|-------------------- 7----------|
B| 0-- 0 0 0---- 1-- 1-- 1 1 1 1 1| 8 7-- 7------ 7--------10-- 8--|
G| 0-- 0 0 0 0 0 0-- 0 0 0 0 0 0 0| 5 5-- 5---- 5-------- 8-- 8-- 8|
D|--------------------------------| 7 7-- 7-- 7------ 7------------|
A|---------------- 3--------------| 5------------------------------|
E| 0------------------------------|---------------- 7--------------|
http://classicalguitartablature.blogspot.com/
E|------------------------------ 5|---- 5 5 5---- 7-------------- 7|
B| 8-- 8 8 8 8 8 8---- 8 8 8 8 8 7|---- 7 7-- 8-- 7--10-- 8--10 8 5|
G| 5-- 5 5 5 5 5 7---- 7 7 7 7 7 7|---- 7 7 7---- 8---- 8-------- 4|
D| 5-- 5 5 5 5 5 7---- 7 7 7 7 7--|-------------------- 7----------|
A|--------------------------------| 5---------------------------- 3|
E| 5-------------- 7--------------|---------------- 7--------------|
http://classicalguitartablature.blogspot.com/
E|------ 5------ 3---------- 3----|--------------------------------|
B|---- 5------ 5-------- 5------ 8|-- 7------ 7-------- 7-- 7-- 8--|
G|-- 4------ 4------ 4---------- 5|-- 5---- 5---- 5----------------|
D|------------------------------ 7|-- 7 7---------- 7--------------|
A|------------------------------ 5|--------------------------------|
E|--------------------------------|--------------------------------|
http://classicalguitartablature.blogspot.com/
E|-------- 7-- 5---------- 3------|--------------------------------|
B| 8---------- 5------ 5------ 7--|------ 7------------ 7-- 7-- 8--|
G| 9-- 9------ 4------ 4----------|---- 5---- 5-- 5----------------|
D|---- 9--------------------------|---- 7------ 7------------------|
A|---------------- 3--------------| 5------------------------------|
E| 0------------------------------|--------------------------------|
http://classicalguitartablature.blogspot.com/
E|-------- 7-- 5---------- 3------|--------------------------------|
B| 8---------- 5------ 5------ 7--|------ 7------------ 7-- 7-- 8--|
G| 9-- 9------ 4------ 4----------|---- 5---- 5-- 5----------------|
D|---- 9--------------------------|---- 7------ 7------------------|
A|---------------- 3--------------| 5------------------------------|
E| 0------------------------------|------------------------------ 3|
http://classicalguitartablature.blogspot.com/
E| 3------------------------------|--------------------------------|
B| 3------------------------------|--------------------------------|
G| 0---- 0------------------------|--------------------------------|
D|---- 0--------------------------|--------------------------------|
A|--------------------------------|--------------------------------|
E|--------------------------------|--------------------------------|
http://classicalguitartablature.blogspot.com/

0 ความคิดเห็น:

แสดงความคิดเห็น