To celebrate the anniversary, I am giving you (finally...) : iPhone LickByNeck !!!!!!

From This Moment (BASIC)

Shania Twain's tune fingerstyle chord melody guitar BASIC arrangement played in the key of G.

From This Moment On-Shania Twain-BASIC ARRANGEMENT played in the key of G.
http://classicalguitartablature.blogspot.com/
E|--------------------------------|--------------------------------|
B| 0---------- 0---------- 0-- 1--| 3------------------------------|
G| 0------ 0------ 0--------------| 0 0-------------------- 0------|
D|---- 0--------------------------| 0------ 0-------- 0-------- 0 0|
A|--------------------------------|--------------------------------|
E| 3------------------------------| 3---------- 3-- 3------------ 3|
http://classicalguitartablature.blogspot.com/
E|--------------------------------|---- 0--------------------------|
B| 3-- 1-- 0-------------- 0------|-------------------------- 3-- 3|
G| 0---------- 2------ 2------ 2--| 0-------------------- 0------ 2|
D|-------------------- 4----------|-------- 2---------- 2----------|
A|---------------- 5--------------| 3---------- 3-- 3--------------|
E|--------------------------------|--------------------------------|
http://classicalguitartablature.blogspot.com/
http://classicalguitartablature.blogspot.com/
E|-- 0------ 2------------ 0-- 2--| 3-------- 3-- 3-- 2---- 0------|
B|-------- 3----------------------| 1-- 1---------- 1---------- 3--|
G|-------------------- 2----------| 0-- 0-------- 0----------------|
D| 4---------------- 4------------|---- 2-- 2----------------------|
A| 5---------- 5-- 5--------------| 3------------ 3----------------|
E|--------------------------------|--------------------------------|
http://classicalguitartablature.blogspot.com/
E|--------------------------------|--------------------------------|
B|-- 1 0------ 3-- 3-- 1----------| 0------------------------ 0----|
G|---------------- 0--------------| 2-- 2---------- 0------ 0------|
D|------ 0-------- 2---------- 2--| 0-------- 0-------- 0----------|
A| 2-------------- 0--------------|-------- 0----------------------|
E|------------------------ 3---- 2|---------------- 3--------------|
http://classicalguitartablature.blogspot.com/
E|--------------------------------|--------------------------------|
B| 1---------- 1---------- 0 1----| 3------------------------------|
G|-------- 0----------------------| 0 0-------------------- 0------|
D|---- 0-------------- 0----------| 0------ 0-------- 0-------- 0 0|
A|--------------------------------|--------------------------------|
E|---------------- 3--------------| 3---------- 3-- 3------------ 3|
http://classicalguitartablature.blogspot.com/
E|--------------------------------|---- 0--------------------------|
B| 3-- 1-- 0-------------- 0------|-------------------------- 3-- 3|
G| 0---------- 2------ 2------ 2--| 0-------------------- 0------ 2|
D|-------------------- 4----------|-------- 2---------- 2----------|
A|---------------- 5--------------| 3---------- 3-- 3--------------|
E|--------------------------------|--------------------------------|
http://classicalguitartablature.blogspot.com/
E|-- 0------ 2------------ 0-- 2--| 3-------- 3-- 3-- 2---- 0------|
B|-------- 3----------------------| 1-- 1---------- 1---------- 3--|
G|-------------------- 2----------| 0-- 0-------- 0----------------|
D| 4---------------- 4------------|---- 2-- 2----------------------|
A| 5---------- 5-- 5--------------| 3------------ 3----------------|
E|--------------------------------|--------------------------------|
http://classicalguitartablature.blogspot.com/
E|--------------------------------|--------------------------------|
B|-- 1 0------ 3-- 3-- 1----------| 0------------------------ 3-- 1|
G|---------------- 0--------------| 2-- 2---------- 0------ 0------|
D|------ 0-------- 2---------- 2--| 0-------- 0-------- 0----------|
A| 2-------------- 0--------------|-------- 0----------------------|
E|------------------------ 3---- 2|---------------- 3--------------|
http://classicalguitartablature.blogspot.com/
E|--------------------------------|---- 3-- 3-- 5-------- 7---- 0--|
B|------------ 1-------------- 3--| 3------------10---- 8----------|
G|-------- 0-------------- 0------| 0------------------------ 7----|
D|-- 0---------------- 0----------| 0------------------------------|
A|--------------------------------|--------------------------------|
E|---------------- 3--------------| 3-------------- 7--------------|
http://classicalguitartablature.blogspot.com/
E|---------------------------- 3--|---------------- 0--------------|
B|---------- 1--------------------| 8-- 7-- 7------ 3-- 3-- 3-- 1--|
G|-------- 0-------------- 0------| 5------ 7-- 9 0-------- 0------|
D|-- 2---------------- 2----------| 7------ 7------------ 2------ 0|
A| 3-------------- 3--------------| 5------------ 2------ 0--------|
E|--------------------------------|------ 8---------------------- 3|
http://classicalguitartablature.blogspot.com/
E|--------------------------------|-- 3-- 3-- 5-------- 7------ 0--|
B| 1-- 0 3-------- 0-- 1----------| 3 3 3--------10-- 8------------|
G| 0---------- 0-- 0-- 2----------| 0------------ 7---------- 7----|
D|---------- 0---- 2------ 2------| 0------------ 9----------------|
A|-------------------- 0----------|--------------------------------|
E|---------------- 0---------- 3--|-------------- 7----------------|
http://classicalguitartablature.blogspot.com/
E|---------------------------- 7--|---------------------------- 7--|
B|------ 1---------------- 3------|-------- 0-------------- 8------|
G|--------------------------------|-------- 0----------------------|
D|---- 2-------------- 2----------|---- 0-------------- 0----------|
A| 3---------- 3-- 3--------------|--------------------------------|
E|--------------------------------| 0---------- 0-- 0--------------|
http://classicalguitartablature.blogspot.com/
E|---------------------------- 7--|---------------------- 3---- 7--|
B|-------- 8-------------- 8------|------ 0-------------------- 5--|
G|-------- 9----------------------|-------- 0------------------ 5--|
D|----10--------------10----------|---- 0-------------- 0----------|
A|--------------------------------|--------------------------------|
E| 8-------- 8---- 8--------------| 3---------- 3-- 3--------------|
http://classicalguitartablature.blogspot.com/
E|--------------------------------| 5-------------- 5------ 5------|
B|------------ 5-------- 5--------|--------------------------------|
G|------ 5------ 5---------- 5-- 5|--------------------------------|
D|---- 5------------ 5------------|--------------------------------|
A| 5---------------------------- 5|------------------------------ 0|
E|--------------------------------|--------------------------------|
http://classicalguitartablature.blogspot.com/
E| 5------------------------------|--------------------------------|
B| 2-- 2--------------------------| 5-- 3-- 2-- 0---------- 2-- 0--|
G| 2------ 2-------------- 2------| 2---------- 1------ 1----------|
D|-------------------- 2------ 2 2|------------ 2---- 2------------|
A|------------ 0-- 0------------ 0|------------------------------ 5|
E|--------------------------------|---------------- 0--------------|
http://classicalguitartablature.blogspot.com/
E|-- 2------------------------ 0--| 0 2-- 0-- 4-------------- 4----|
B|---- 3--------------------------| 0-------- 5---------- 7--------|
G| 2-- 2-- 2-------------- 2---- 1|---------- 4-------- 4----------|
D| 4------------------ 4----------| 2------------------ 6-------- 7|
A|------------ 5-- 5--------------|--------------------------------|
E|------------------------------ 0|---------------- 4------------10|
http://classicalguitartablature.blogspot.com/
E|--------------------------------|--------------------------------|
B|10----------10--10-- 9-- 7-- 5--|-- 3 2------ 5-- 5-- 3------ 3--|
G|---- 7---------- 7---------- 2--|-------- 2------ 2--------------|
D|-------- 7------ 7---------- 2--|---------------- 4------------ 2|
A|--------------------------------| 4-------------- 2--------------|
E|------------10--10--------------|------------------------ 5---- 4|
http://classicalguitartablature.blogspot.com/
E|-------- 2-- 4------------------|--------------------------------|
B| 2------ 2------10----------10--|10-- 9-- 7-- 5---- 3 2------ 5--|
G|---- 4-- 4---------- 7----------| 7---------- 2---------- 2------|
D|-------------- 7-------- 7------| 7---------- 2------------------|
A|-------- 4----------------------|---------------- 4--------------|
E|--------------10------------10--|10------------------------------|
http://classicalguitartablature.blogspot.com/
E|--------------------------------|--------------------------------|
B| 5-- 3------ 3-- 2--------------|--------------------------------|
G| 2-------------- 4-- 4----------| 2------------------------------|
D| 4-------------- 2---------- 2--| 2------------------------------|
A| 2------------------------------|--------------------------------|
E|-------- 5---- 4-------- 2------| 0------------------------------|
http://classicalguitartablature.blogspot.com/

0 ความคิดเห็น:

แสดงความคิดเห็น