To celebrate the anniversary, I am giving you (finally...) : iPhone LickByNeck !!!!!!

I Want You Back (BASIC)

Jackson 5's tune fingerstyle chord melody guitar BASIC arrangement played in the key of Ab.

I Want You Back-Jackson 5-BASIC ARRANGEMENT played in the key of Ab.
http://classicalguitartablature.blogspot.com/
E| 4---- 4 4---- 4-- 4 4----------|-------- 4-- 4------------------|
B| 4---- 4 4---- 4-- 4------------|-- 4---- 4-------------------- 9|
G| 5---- 5------ 5-- 5-------- 6--|---- 6-- 6-- 6------------------|
D|------ 6-------------------- 6--|-- 6-------- 6------------------|
A|-------------------------- 6 4--|-------------- 4-- 3 4-- 5 6 7--|
E| 4------------------ 6-- 8------|---------------- 6--------------|
http://classicalguitartablature.blogspot.com/
E|--------------------------------|--------------------------------|
B|-------- 8------ 6---- 4--------| 6------ 8---- 4-- 4---- 4------|
G|10-------------- 6---- 5---- 5--| 6------ 8---- 5-- 5---- 5------|
D|10----1010------ 6---- 6---- 6--| 8------ 8---- 6---- 6-- 6------|
A| 8-------------- 4--------------|-------- 6----------------------|
E|-------- 8------------ 4--------| 6------------ 4----------------|
http://classicalguitartablature.blogspot.com/
http://classicalguitartablature.blogspot.com/
E| 4---- 4 4---- 4-- 4 4----------|-------- 4-- 4------------------|
B| 4---- 4 4---- 4-- 4------------|-- 4---- 4-------------------- 9|
G| 5---- 5------ 5-- 5-------- 6--|---- 6-- 6-- 6------------------|
D|------ 6-------------------- 6--|-- 6-------- 6------------------|
A|-------------------------- 6 4--|-------------- 4-- 3 4-- 5 6 7--|
E| 4------------------ 6-- 8------|---------------- 6--------------|
http://classicalguitartablature.blogspot.com/
E|--------------------------------|--------------------------------|
B|-------- 8------ 6---- 4--------| 6------ 8---- 4-- 4---- 4------|
G|10-------------- 6---- 5---- 5--| 6------ 8---- 5-- 5---- 5------|
D|10----1010------ 6---- 6---- 6--| 8------ 8---- 6---- 6-- 6------|
A| 8-------------- 4--------------|-------- 6----------------------|
E|-------- 8------------ 4--------| 6------------ 4----------------|
http://classicalguitartablature.blogspot.com/
E|--------------------------------|--------------------------------|
B| 1------ 4------ 1------ 4------| 2------ 1------ 6------ 6---- 9|
G| 1------ 3------ 1------ 3------| 1------ 1------ 6------ 6------|
D| 1------ 1------ 3------ 5------| 3------ 1------ 6------ 6------|
A|------------------------ 6-- 6--| 4---- 4 3---- 3-------- 6---- 6|
E| 4---- 4 3---- 3 1---- 1--------|---------------- 6---- 6--------|
http://classicalguitartablature.blogspot.com/
E|--------------------------------|--------------------------------|
B|-------- 8------ 6---- 4--------| 6------ 8---- 4-- 4---- 4---- 4|
G|10-------------- 6---- 5---- 5--| 6------ 8---- 5-- 5---- 5------|
D|10----1010------ 6---- 6---- 6--| 8------ 8---- 6---- 6-- 6------|
A| 8-------------- 4--------------|-------- 6----------------------|
E|-------- 8------------ 4--------| 6------------ 4----------------|
http://classicalguitartablature.blogspot.com/
E|-------- 4 6-- 8----------------|-------- 4 6-- 8-------------- 8|
B| 4-- 6------------ 6-- 6------ 4| 4-- 6-------- 6----------------|
G| 5---------------------------- 6|-------------- 6----------------|
D| 6---------------------------- 6|-------------- 6----------------|
A|-------------------------- 6 8 4|-------------------------- 5 6 7|
E| 4-------------------- 6 8------|------------------ 6 8 9--------|
http://classicalguitartablature.blogspot.com/
E|11-- 8-- 8---------- 4-- 4------|--------------------------------|
B|---- 9-- 8--1111------------ 6--| 9-- 6-- 9-- 9---- 4---------- 4|
G| 8-- 8-- 8-- 810---------- 5----| 6---------- 5---- 5 5----------|
D|----------------11---------- 6--| 6------ 6-- 6---- 6------------|
A| 8------------------------------|-------- 6----------------------|
E|-------- 8------ 9---- 4--------| 6-------------- 4-------- 4----|
http://classicalguitartablature.blogspot.com/
E|-------- 4 6-- 8----------------|-------- 4 6-- 8-------------- 8|
B| 4-- 6------------ 6-- 6------ 4| 4-- 6-------- 6----------------|
G| 5---------------------------- 6|-------------- 6----------------|
D| 6---------------------------- 6|-------------- 6----------------|
A|-------------------------- 6 8 4|-------------------------- 5 6 7|
E| 4-------------------- 6 8------|------------------ 6 8 9--------|
http://classicalguitartablature.blogspot.com/
E|11-- 8-- 8---------- 4-- 4------|------------ 4----------------11|
B|---- 9-- 8--1111------------ 6--| 9-- 6-- 9-- 9---------------- 9|
G| 8-- 8-- 8-- 810---------- 5----| 6---------- 5---------------- 8|
D|----------------11---------- 6--| 6------ 6---------------- 6----|
A| 8------------------------------|-------- 6----------------------|
E|-------- 8------ 9---- 4--------| 6-------------- 4---- 4---- 4--|
http://classicalguitartablature.blogspot.com/
E|-------- 8-------------- 8------| 6------------------------------|
B|-------- 8--11-- 9--11-- 9-- 9--| 6------ 4-------------- 6------|
G|-------- 8-- 8-- 8--------------| 5------ 5------ 6------ 6------|
D|----------------10--------------|---------------- 6------ 6------|
A|11--11--10--10-- 8-- 8-- 6-- 6--| 4---- 4 3---- 3-------- 6-- 6--|
E|--------------------------------|---------------- 6---- 6--------|
http://classicalguitartablature.blogspot.com/
E| 3------ 8------ 8------ 8------| 8------------ 8-- 4 6-- 4------|
B| 9------ 8------ 9------ 6------| 6------------ 4------------ 4--|
G| 8------ 8------10------ 5------| 6------------ 5----------------|
D|--------------10----------------|--------------------------------|
A| 8-- 8--------------------------|-------- 6----------------------|
E|-------- 8-- 8-- 9---- 4--------| 6---- 6------ 4----------------|
http://classicalguitartablature.blogspot.com/
E|11 8---- 8-------------- 8------| 6-- 4--------------------------|
B| 9 9---- 8--11-- 9--11-- 9-- 9--| 6-- 6------------------ 6------|
G| 8------ 8-- 8-- 8--------------| 5------------ 3 6------ 6------|
D|----------------10--------------|-------------- 5 6------ 6------|
A|11--11--10--10-- 8-- 8-- 6-- 6--| 4------ 3---- 3-------- 6-- 6--|
E|--------------------------------|---------------- 6---- 6--------|
http://classicalguitartablature.blogspot.com/
E| 3------ 8------ 8------ 8------| 8------------ 8-- 4 6-- 4------|
B| 9------ 8------ 9------ 6------| 6------------ 4------------ 4 6|
G| 8------ 8------10------ 5------| 6------------ 5-------------- 5|
D|--------------10----------------|------------------------------ 6|
A| 8-- 8--------------------------|-------- 6----------------------|
E|-------- 8-- 8-- 9---- 4--------| 6---- 6------ 4----------------|
http://classicalguitartablature.blogspot.com/
E|-- 4 6------------ 4-- 4------ 9| 8-- 6-- 4------ 4 4 4 4--------|
B|-- 4-- 4-- 6-------- 4----------|---------------- 4 4-- 4------ 6|
G|-- 5-- 5-- 5-------- 5 5------10|-- 8-- 6-- 5-------- 5 5------ 5|
D|---------- 6--------------------|------------------------------ 6|
A|--------------------------------|--------------------------------|
E|------------------ 4-- 4 4------|---------------- 4 4 4 4--------|
http://classicalguitartablature.blogspot.com/
E|-- 4 6------------ 4-- 4------ 9| 8-- 6-- 4------ 4 4 4 4--------|
B|-- 4-- 4-- 6-------- 4----------|---------------- 4 4-- 4--------|
G|-- 5-- 5-- 5-------- 5 5------10|-- 8-- 6-- 5-------- 5 5--------|
D|---------- 6--------------------|--------------------------------|
A|--------------------------------|--------------------------------|
E|------------------ 4-- 4 4------|---------------- 4 4 4 4--------|
http://classicalguitartablature.blogspot.com/
E| 4---- 4 4---- 4-- 4 4----------|-------- 4-- 4------------------|
B| 4---- 4 4---- 4-- 4------------|-- 4---- 4-------------------- 9|
G| 5---- 5------ 5-- 5-------- 6--|---- 6-- 6-- 6------------------|
D|------ 6-------------------- 6--|-- 6-------- 6------------------|
A|-------------------------- 6 4--|-------------- 4-- 3 4-- 5 6 7--|
E| 4------------------ 6-- 8------|---------------- 6--------------|
http://classicalguitartablature.blogspot.com/
E|--------------------------------|--------------------------------|
B|-------- 8------ 6---- 4--------| 6------ 8---- 4-- 4---- 4------|
G|10-------------- 6---- 5---- 5--| 6------ 8---- 5-- 5---- 5------|
D|10----1010------ 6---- 6---- 6--| 8------ 8---- 6---- 6-- 6------|
A| 8-------------- 4--------------|-------- 6----------------------|
E|-------- 8------------ 4--------| 6------------ 4----------------|
http://classicalguitartablature.blogspot.com/
E| 4---- 4 4---- 4-- 4 4----------|-------- 4-- 4------------------|
B| 4---- 4 4---- 4-- 4------------|-- 4---- 4-------------------- 9|
G| 5---- 5------ 5-- 5-------- 6--|---- 6-- 6-- 6------------------|
D|------ 6-------------------- 6--|-- 6-------- 6------------------|
A|-------------------------- 6 4--|-------------- 4-- 3 4-- 5 6 7--|
E| 4------------------ 6-- 8------|---------------- 6--------------|
http://classicalguitartablature.blogspot.com/
E|--------------------------------|--------------------------------|
B|-------- 8------ 6---- 4--------| 6------ 8---- 4-- 4---- 4------|
G|10-------------- 6---- 5---- 5--| 6------ 8---- 5-- 5---- 5------|
D|10----1010------ 6---- 6---- 6--| 8------ 8---- 6---- 6-- 6------|
A| 8-------------- 4--------------|-------- 6----------------------|
E|-------- 8------------ 4--------| 6------------ 4----------------|
http://classicalguitartablature.blogspot.com/

0 ความคิดเห็น:

แสดงความคิดเห็น