To celebrate the anniversary, I am giving you (finally...) : iPhone LickByNeck !!!!!!

Just One Last Dance (BASIC)

Sarah Connor's tune fingerstyle chord melody guitar BASIC arrangement played in the key of Dm.

Just One Last Dance-Sarah Connor-BASIC ARRANGEMENT played in the key of Dm.
http://classicalguitartablature.blogspot.com/
E| 0-------- 0--------------------| 5------------------------------|
B| 2------ 2------ 3---- 5---- 6--| 6------ 6------ 8---- 8---- 6 6|
G| 0---- 0---- 0-- 0---- 0---- 0--| 7---- 7-- 7-- 7-- 9-- 7-- 7----|
D|---- 2-------- 2 3---- 5---- 7--|---- 7------ 7----10---- 8------|
A| 0------------------------------| 5------------------------------|
E|--------------------------------|---------------- 8------ 6------|
http://classicalguitartablature.blogspot.com/
E| 0-------------------- 0--------| 5------------------------------|
B| 2------ 2-- 2 3------ 5---- 6--| 6------ 6------ 8---- 8---- 6 6|
G|------ 0-- 0-- 0---- 0 0---- 0--| 7---- 7-- 7-- 7-- 9-- 7-- 7-- 6|
D|---- 2------ 2---- 3-- 5---- 7--|---- 7------ 7----10---- 8---- 5|
A| 0-------------- 0--------------| 5------------------------------|
E|--------------------------------|---------------- 8------ 6------|
http://classicalguitartablature.blogspot.com/
http://classicalguitartablature.blogspot.com/
E|---------------- 5--------------|--------------------------------|
B|-------------- 5----------------|-------- 3-- 3------ 3 3-- 3 5--|
G|------------ 6------------------|---- 4 4-- 4-------- 4----------|
D|---------- 7--------------------|-- 4------------ 4--------------|
A| 0------------------------------| 2---------- 2 2----------------|
E|--------------------------------|--------------------------------|
http://classicalguitartablature.blogspot.com/
E|--------------------------------|--------------------------------|
B|---- 2-- 2-- 2------ 2-- 2 2 3 0|-------- 0------ 0-- 0 0 0 2 0--|
G|------ 2-- 2------ 2-- 2--------|-- 2 0---- 0-- 0------ 0 0---- 3|
D|-- 2----------------------------|------ 0---- 0 0-------- 0------|
A| 0------------ 0 0--------------|--------------------------------|
E|--------------------------------| 3------------ 3 3--------------|
http://classicalguitartablature.blogspot.com/
E|--------------------------------|--------------------------------|
B|------------------------ 2------|-------- 3-- 3------ 3 3-- 3 5--|
G|-------------------- 3---- 3 3--|---- 4 4-- 4-------- 4----------|
D|---- 4 2-- 4------ 4-- 4---- 4--|-- 4------------ 4--------------|
A|--------------------------------| 2---------- 2 2----------------|
E| 2------------ 2 2--------------|--------------------------------|
http://classicalguitartablature.blogspot.com/
E|--------------------------------|--------------------------------|
B|---- 2-- 2-- 2------ 2-- 2 2 3 0|-------- 0------ 0-- 0 0 0 2 0--|
G|------ 2-- 2------ 2-- 2--------|-- 2 0---- 0-- 0------ 0 0---- 3|
D|-- 2----------------------------|------ 0---- 0 0-------- 0------|
A| 0------------ 0 0--------------|--------------------------------|
E|--------------------------------| 3------------ 3 3--------------|
http://classicalguitartablature.blogspot.com/
E|-- 2----------------------------|--------------------------------|
B|-------- 2------------ 2------ 2| 3-- 2 0-- 2-- 3------ 3---- 2--|
G|------ 3-- 3-------- 3------ 4--| 0-------- 0-------- 0----------|
D|---- 4------ 4---- 4------ 4----|-- 0---- 0-------- 0------ 0----|
A|--------------------------------|--------------------------------|
E| 2------------ 2 2--------------| 3------------ 3 3--------------|
http://classicalguitartablature.blogspot.com/
E|--------------------------------|------------------------------ 5|
B| 5 3-- 2---- 3-------- 5--------|---------------- 3---- 5---- 6--|
G| 2 2-- 2-- 2-- 2---- 2------ 2--|--------------------------------|
D|-- 2---- 2-------- 2------ 2----|---------------- 3---- 5---- 7--|
A| 0------------ 0 0--------------|--------------------------------|
E|--------------------------------|--------------------------------|
http://classicalguitartablature.blogspot.com/
E|-------------- 5-- 6 3-- 3-- 3--|-------------- 3 5--------------|
B|------ 6---- 6-- 3 3------ 6----|------ 5---- 6-- 5-- 8 6---- 5 6|
G|---- 5-- 5-------- 3---- 3------|-- 3------------ 6-- 6 6-- 6----|
D|-- 7------ 7--------------------|-- 5------ 5------ 5 5 5 5------|
A| 5------------------------------| 3-------------- 0--------------|
E|---------------- 3--------------|--------------------------------|
http://classicalguitartablature.blogspot.com/
E|-------------------- 3-------- 1|-- 0-------------------------- 5|
B|---- 5 6---- 5 6------ 3 5-- 6--|------ 2------ 2 3---- 5-- 6----|
G|---- 7 7------------ 3 3--------|-------- 0-- 0-- 3-- 3----------|
D|-- 8------ 8------ 3---- 3------|---------- 2------ 5------------|
A|--------------------------------| 0-------------- 4--------------|
E| 6------ 6------ 3------ 3------|--------------------------------|
http://classicalguitartablature.blogspot.com/
E|-------------- 5-- 6 3-- 3-- 3--|-------------- 3 5 5 8---- 8--10|
B|------------ 6 8 3 3------ 6----|------ 5---- 6-- 5 5-- 5-- 5-- 6|
G|---- 7---- 7------ 3---- 3------|-- 3------------ 6-- 6 6-- 6-- 7|
D|-- 7-- 7------------------------|-- 5------ 5--------------------|
A| 5------------------------------| 3-------------- 0--------------|
E|---------------- 3--------------|------------------------------ 6|
http://classicalguitartablature.blogspot.com/
E|-- 8---------- 3-- 5 3----------|-------------- 5----------------|
B|----10------ 6 3---------- 6 5--|------ 5------ 5------ 8-- 6-- 5|
G| 7-------- 7---- 3--------------|---- 7---- 7 7------ 6----------|
D|-------- 8---------------- 5----|-- 5-------- 5---- 5------------|
A|--------------------------------| 0-------------- 0--------------|
E|------ 6------ 3------ 3--------|--------------------------------|
http://classicalguitartablature.blogspot.com/
E|--------------------------------| 0-------------------- 0--------|
B|---- 6-------- 6 8---- 8 6-- 6 8| 2------ 2-- 2 3------ 5---- 6--|
G|------ 7-- 7-------- 9---- 7----|------ 0-- 0-- 0---- 0 0---- 0--|
D|---------- 7------10------ 8----|---- 2------ 2---- 3-- 5---- 7--|
A| 5------------------------------| 0-------------- 0--------------|
E|---------------- 8------ 6------|--------------------------------|
http://classicalguitartablature.blogspot.com/
E| 5------------------------------|---------------- 5--------------|
B| 6------ 6------ 8---- 8---- 6 6|-------------- 5----------------|
G| 7---- 7-- 7-- 7-- 9-- 7-- 7-- 6|------------ 6------------------|
D|---- 7------ 7----10---- 8---- 5|---------- 7--------------------|
A| 5------------------------------| 0------------------------------|
E|---------------- 8------ 6------|--------------------------------|
http://classicalguitartablature.blogspot.com/

0 ความคิดเห็น:

แสดงความคิดเห็น