To celebrate the anniversary, I am giving you (finally...) : iPhone LickByNeck !!!!!!

Just Tell Me You Love Me (BASIC)

England Dan And John Ford Coley's tune fingerstyle chord melody guitar BASIC arrangement played in the key of A.

Just Tell Me You Love Me-England Dan And John Ford Coley -BASIC ARRANGEMENT played in the key of A.
http://classicalguitartablature.blogspot.com/
E|--------------------------------|-------- 9----12---- 9-------- 9|
B|--------------------------------|12------10------10------10----10|
G|------------------------ 9------| 9------------------------ 9-- 9|
D|--------------------------------|11--11------11------------------|
A| 0------------------------------| 0------------------------------|
E|--------------------------------|------------------------------10|
http://classicalguitartablature.blogspot.com/
E|--------------------------------|---------- 5---- 4---------- 7--|
B|----10--------------------------| 7-------------------- 5--------|
G|--------11 9--------------------|-- 7---------------- 4----------|
D|----------------11--------------|-------- 7----------------------|
A|--------------------------------| 5------------------------------|
E|--------------------------------|---------------- 0--------------|
http://classicalguitartablature.blogspot.com/
http://classicalguitartablature.blogspot.com/
E|--------------------------------|--------------------------------|
B|-------- 2 2 2------------------|-------- 2 2 2------------------|
G|-------- 2 2 2---------- 2---- 4|-------- 4 4 4-------- 4--------|
D|---- 2-------------- 2------ 2--|---- 2-- 2 2 2------ 2------ 2--|
A| 0------------------------------|--------------------------------|
E|--------------------------------| 4------------------------------|
http://classicalguitartablature.blogspot.com/
E|-------------------- 0------ 2--|--------------------------------|
B|-------- 2 2---- 3---------- 2--|---- 5------ 3------ 2------ 3--|
G|-------- 4 4---- 4---------- 3--|---- 3------ 4------ 0----------|
D|---- 2-- 2-- 2-- 2------ 2------|---- 2-- 2-- 2------ 2----------|
A|--------------------------------|---------------------- 1--------|
E| 3-------------- 3--------------| 2-------------- 4--------------|
http://classicalguitartablature.blogspot.com/
E|--------------------------------|--------------------------------|
B|---------- 2 3------------------| 3-- 3-- 3-- 3------------------|
G|-------- 4-------------- 2------| 2-- 2-- 2-- 2---------- 2------|
D|---- 4-------------- 4------ 4--| 4-- 4-- 4-- 4------ 4------ 4--|
A| 2------------------------------| 0------------------------------|
E|--------------------------------|--------------------------------|
http://classicalguitartablature.blogspot.com/
E|---------------------------- 0--|--------------------------------|
B|---------------- 2-- 3----------|---- 3------ 2---- 0---- 2------|
G|-------- 4-- 4 4---- 4----------|---- 1------ 1---- 1---- 1-- 2--|
D|---- 2---------- 2------ 2------|------ 0---- 0---- 0---- 0------|
A|--------------------------------|--------------------------------|
E| 4-------------- 4--------------| 0-------------- 1--------------|
http://classicalguitartablature.blogspot.com/
E|---------------- 2--------------|--------------------------------|
B|------------ 2 3------------ 5--|------------------------ 2-- 2--|
G|-------- 2-------------- 2------|-------- 2------ 2-- 4 2--------|
D|---- 4-------------- 4----------|---- 2------ 2-- 2--------------|
A|---------------- 5--------------| 4-------------- 0--------------|
E| 2------------------------------|--------------------------------|
http://classicalguitartablature.blogspot.com/
E|--------------------------------|--------------------------------|
B|------ 2------------ 2----------|--------------------------------|
G|------------ 4-- 4------ 4-- 2--|-------- 2-------------- 1------|
D|---- 4---------- 3--------------|---- 4------ 4------ 2------ 2--|
A|---------------- 4--------------|--------------------------------|
E| 4------------------------------| 2-------------- 0--------------|
http://classicalguitartablature.blogspot.com/
E|-------- 0-- 0------------------|--------------------------------|
B|-------- 2-- 2------ 3-- 2-- 2--|---- 3--------------------------|
G|-------- 2-- 2------ 2-- 2-- 2--|---- 2---- 2---------- 2--------|
D|---- 2-------------- 2-- 2-- 4--|-------- 4-------- 4------ 4----|
A| 0-------------- 0--------------|--------------------------------|
E|--------------------------------| 0-------------- 0--------------|
http://classicalguitartablature.blogspot.com/
E|--------------------------------|--------------------------------|
B|------ 0-- 2---- 3------ 2-- 0--| 0------ 2-- 2------------------|
G|---------------- 1------ 1-- 1--| 2------ 2-- 2---------- 2------|
D|---- 2-------------- 2-- 0-- 0--|---- 2-------------- 2------ 2--|
A|--------------------------------|--------------------------------|
E| 0-------------- 0------ 1------| 2-------------- 0--------------|
http://classicalguitartablature.blogspot.com/
E|--------------------------------|--------------------------------|
B|---------- 0---- 2------ 0------|-------------------------- 0----|
G|-------- 2------ 2---------- 2--| 2-- 4------ 4---------- 1------|
D|---- 4-------------- 4------ 2--| 4------ 4---------- 0----------|
A| 5-------------- 5---------- 4--| 2------------------------------|
E|--------------------------------|---------------- 1--------------|
http://classicalguitartablature.blogspot.com/
E|--------------------------------|--------------------------------|
B|---------------------- 0---- 2--|---------- 2-- 3-- 5------------|
G|---- 2 2-- 1-- 2------------ 3--|------ 3------ 3---- 3---- 3----|
D|---- 2 2-- 2------ 2-------- 2--|-- 2---------- 2-------- 2------|
A|--------------------------------|--------------------------------|
E| 2-------------- 2--------------| 2------------------------------|
http://classicalguitartablature.blogspot.com/
E|------ 2-- 2---- 2-- 0----------|--------------------------------|
B|------ 3-- 3---- 3---------- 3--| 2-- 3-------------- 3----------|
G|-------- 2 2---- 2--------------| 2-- 2------ 2---------- 2------|
D|---- 4--------------------------| 4------ 4------------------ 4--|
A| 5------------------------------| 2------------------------------|
E|--------------------------------|--------------------------------|
http://classicalguitartablature.blogspot.com/
E|---------------- 0--------------|--------------------------------|
B|-------- 0-- 0-- 0------ 0------| 0-- 2-- 2-- 2------------------|
G|-------- 1-- 1-- 1------ 1------| 2-- 2-- 2-- 2---------- 2------|
D|---- 2-- 2-- 2------ 2-- 0-- 0--| 2-- 2-- 2-- 2------ 2------ 2--|
A|--------------------------------|--------------------------------|
E| 0-------------- 0------ 1------| 2-------------- 0--------------|
http://classicalguitartablature.blogspot.com/
E|--------------------------------|--------------------------------|
B|------------ 0-- 2---- 0--------|--------------------------------|
G|-------- 2------ 2---------- 2--| 2-- 4------ 4---------- 1------|
D|---- 4---------- 4---------- 2--| 4------ 4---------- 2------ 2--|
A| 5-------------- 5---------- 4--| 2------------------------------|
E|--------------------------------|---------------- 0--------------|
http://classicalguitartablature.blogspot.com/
E|--------------------------------| 5-- 2--------------------------|
B| 0------ 2-------------- 2------| 2------ 2----------------------|
G| 2------ 2---------- 2------ 2--| 2---------- 2------------------|
D|---- 2------ 2------------------|---------------- 4--------------|
A| 0------------------------------| 5------------------------------|
E|--------------------------------|--------------------------------|
http://classicalguitartablature.blogspot.com/
E|--------------------------------|--------------------------------|
B|---------------- 2--------------|---- 2--------------------------|
G|-------- 4-------------------- 2|-------------- 2----------------|
D|---- 2-------------------- 2----|------------ 2------------------|
A| 5------------------------------|------------ 0------------------|
E|-------------------- 0----------|--------------------------------|
http://classicalguitartablature.blogspot.com/

0 ความคิดเห็น:

แสดงความคิดเห็น