To celebrate the anniversary, I am giving you (finally...) : iPhone LickByNeck !!!!!!

Listen To Your Heart (BASIC)

Roxette's tune fingerstyle chord melody guitar BASIC arrangement played in the key of Bm.

Listen to youre heart-Roxette- BASIC ARRANGEMENT played in the key of Bm.
http://classicalguitartablature.blogspot.com/
E|------------ 5------ 3---- 2-- 0|---- 0------ 2------------------|
B|-------- 3-- 0---------------- 2|------ 3---- 3---------------- 2|
G|---- 4------ 0------------------| 2---------- 4-------- 4------ 4|
D|--------------------------------|-------------------- 4------ 4--|
A| 2------------------------------| 0---------- 2------------------|
E|------------ 3------------------|--------------------------------|
http://classicalguitartablature.blogspot.com/
E|-- 5 2--------------------------|------ 0------------------------|
B| 3---- 5-- 3 0---------- 0-- 0--| 2---------- 3---- 2 0----------|
G|-------------------------- 2----| 2---------- 2---------- 2------|
D|-------------------- 0----------| 2-- 2------ 0-------------- 0--|
A| 2------------------------------| 0---------- 2------------------|
E|------------ 3------------------|--------------------------------|
http://classicalguitartablature.blogspot.com/
http://classicalguitartablature.blogspot.com/
E|------------ 5------ 3---- 2-- 0|---- 0------ 2------------------|
B|-------- 3-- 0---------------- 2|------ 3---- 3---------------- 2|
G|---- 4------ 0------------------| 2---------- 4-------- 4------ 4|
D|--------------------------------|-------------------- 4------ 4--|
A| 2------------------------------| 0---------- 2------------------|
E|------------ 3------------------|--------------------------------|
http://classicalguitartablature.blogspot.com/
E|-- 5 2--------------------------| 0------------------------------|
B| 3---- 5-- 3 0------------ 0 3--| 0------------------------------|
G|------------------------ 0------|--------------------------------|
D|-------------------- 0----------|--------------------------------|
A| 2------------------------------|--------------------------------|
E|------------ 3------------------| 0------------------------------|
http://classicalguitartablature.blogspot.com/
E|---- 2-- 2 2-- 3---- 2 0--------| 0-- 0------ 2------------------|
B|---- 3-- 3 3---------------- 3--| 2------ 3-- 3---- 5 3----------|
G|---- 4-- 4-- 4------------------| 2---------- 2---------- 2------|
D|--------------------------------|---------------------------- 4--|
A| 2------------------------------| 0---------- 2------------------|
E|---------------- 3--------------|--------------------------------|
http://classicalguitartablature.blogspot.com/
E|---- 2-- 2 2-- 3---- 2 0------ 5|---- 5-- 7-- 2------------------|
B|---- 3-- 3 3---------------- 3 5|---- 5------ 3------------------|
G|---- 4-- 4-- 4---------------- 6|---- 6------ 4---------- 4------|
D|--------------------------------| 7------------------ 4------ 4--|
A| 2------------------------------| 0---------- 2------------------|
E|---------------- 3--------------|--------------------------------|
http://classicalguitartablature.blogspot.com/
E|------------------------------ 0|---- 0------ 2---------- 2---- 0|
B|---------- 3 3------ 0---- 0-- 3|-------- 3-- 3-------- 5-- 5 3--|
G|---- 4-- 4-- 0------------------| 2---------- 4------ 4-------- 2|
D|---- 4-- 4-- 0---------- 0------|---------------- 4--------------|
A| 2------------------------------| 0---------- 2------------------|
E|------------ 3------------------|--------------------------------|
http://classicalguitartablature.blogspot.com/
E|-------------------- 0------ 7--|--------------------------------|
B|-- 3-------------------- 3------|---------------------- 5 7---- 5|
G|---- 2---- 0--------------------|---------------------------- 7 2|
D|-------- 0------ 0--------------|------------------------------ 4|
A| 2------------------------------|--------------------------------|
E|------------ 3-------------- 0--|--------------------------------|
http://classicalguitartablature.blogspot.com/
E|-------------------------- 0----| 2-- 3 2------------------------|
B|-- 3------------------ 3--------| 3---------- 5-------- 5-- 7-- 5|
G|-- 2---- 2-------- 0---------- 2|------------ 6------ 6------ 7 2|
D|-- 4 4---------- 0--------------|---------------- 7------------ 4|
A| 2---------------------------- 5|------------ 0------------------|
E|------------ 3------------------|--------------------------------|
http://classicalguitartablature.blogspot.com/
E|-------------------------- 0----| 2-- 3 2---- 0------------ 0-- 5|
B|-- 3------------------ 3--------| 3---------------------- 3---- 7|
G|-- 2---- 2-------- 0---------- 2|------------ 2------ 2----------|
D|-- 4 4---------- 0--------------|---------------- 2--------------|
A| 2---------------------------- 5|------------ 0------------------|
E|------------ 3------------------|--------------------------------|
http://classicalguitartablature.blogspot.com/
E|---- 5-- 7-- 5------------------|-------- 3-- 2---- 0---- 0 2 0--|
B|------------ 5 5------------ 5--| 3-- 3------ 3------ 3------ 3--|
G| 7---------- 6-- 6------ 6------| 0---------- 2------------------|
D|-------------------- 7----------| 0------------------------------|
A| 5---------- 0------------------|------------ 5------------------|
E|--------------------------------| 3------------------------------|
http://classicalguitartablature.blogspot.com/
E| 0------------------------------|---------------------- 5---- 5--|
B|-- 3-------------------- 3------|---------------------- 5---- 5--|
G| 2-- 2------ 0------ 0---- 0-- 6|-------- 6-- 6-- 6---- 6---- 6--|
D|------ 0-------- 0--------------|---- 7---------- 7--------------|
A| 2------------------------------| 0-------------- 0--------------|
E|------------ 3------------------|--------------------------------|
http://classicalguitartablature.blogspot.com/
E| 7-- 7-- 7-- 7 7----------------| 9-- 7-- 9-- 7------------------|
B| 9-- 9---- 9-- 9---- 9------ 9--| 9-- 9-- 9-- 9----10 9----------|
G| 9-- 9-- 9-- 9 9-- 9-------- 9--| 9-- 9-- 9-- 9-------------- 9--|
D|--------------------------------|--------------------------------|
A|--------------------------------|--------------------------------|
E| 0------ 0------ 0------ 0------| 0------ 0------ 0------ 0------|
http://classicalguitartablature.blogspot.com/
E|--------------------------------| 9------ 9----------------------|
B|---- 9-- 9 9 9------------------| 9--12------ 9------------------|
G|---- 9-------- 9---- 9------ 9--| 9------ 9--------11 9----------|
D|----11--1111--11----------------|----------------------------11--|
A|--------------------------------|--------------------------------|
E| 9------ 9------ 9------ 9------| 9------ 9------ 9---- 9--------|
http://classicalguitartablature.blogspot.com/
E|------------------------------ 9|--------------------------------|
B|---- 7-- 7-- 7 7----------------|10--12--12-- 9------------------|
G|---- 8-- 8 8------ 8-------- 8--| 9-- 9-- 9-- 9----11 9----------|
D|---- 9-- 9-- 9 9----------------|----11--11--11----1111------11--|
A|--------------------------------| 0------ 0------ 0------ 0------|
E| 7------ 7------ 7------ 7------|--------------------------------|
http://classicalguitartablature.blogspot.com/
E|--------------------------------|--------------------------------|
B|---- 7 7-- 7 9------ 7----------|---- 5 5-- 5 7---- 5-- 5 7 5-- 5|
G|-- 8-- 8-- 8 8------ 8----------|-- 6-- 6-- 6 6---- 6-- 6---- 7 2|
D|---- 9-- 9 9 9------ 9------ 9--|---- 7 7-- 7 7---- 7-- 7------ 4|
A|--------------------------------|--------------------------------|
E| 7------ 7------ 7------ 7------| 5------ 5------ 5---- 5--------|
http://classicalguitartablature.blogspot.com/
E|-------------------------- 0----| 2-- 3 2------------------------|
B|-- 3------------------ 3--------| 3---------- 5-------- 5-- 7-- 5|
G|-- 2---- 2-------- 0---------- 2|------------ 6------ 6------ 7 2|
D|-- 4 4---------- 0--------------|---------------- 7------------ 4|
A| 2---------------------------- 5|------------ 0---------------- 2|
E|------------ 3------------------|--------------------------------|
http://classicalguitartablature.blogspot.com/
E|-------------------------- 0----| 2-- 3 2---- 0------------ 0-- 5|
B|-- 3------------------ 3--------| 3---------------------- 3---- 7|
G|-- 2---- 2-------- 0---------- 2|------------ 2------ 2----------|
D|-- 4 4---------- 0--------------|---------------- 2--------------|
A|------------------------------ 5|------------ 0------------------|
E|------------ 3------------------|--------------------------------|
http://classicalguitartablature.blogspot.com/
E|---- 5-- 7-- 5------------------|-------- 3-- 2---- 0---- 0 2 0--|
B|------------ 5 5------------ 5--| 3-- 3------ 3------ 3------ 3--|
G| 7---------- 6-- 6------ 6------| 0---------- 2------------------|
D|-------------------- 7----------| 0------------------------------|
A| 5---------- 0------------------|------------ 5------------------|
E|--------------------------------| 3------------------------------|
http://classicalguitartablature.blogspot.com/
E| 0------------------------------|--------------------------------|
B|-- 3-------------------- 3------| 2-------- 2 3 5------ 3---- 2--|
G| 2-- 2------ 0------ 0---- 0----| 2------ 2----------------------|
D|------ 0-------- 0--------------|-- 2----------------------------|
A| 2------------------------------| 0-------------- 0--------------|
E|------------ 3------------------|--------------------------------|
http://classicalguitartablature.blogspot.com/
E|------------ 5------ 3---- 2-- 0|---- 0------ 2------------------|
B|-------- 3-- 0---------------- 2|------ 3---- 3---------------- 2|
G|---- 4------ 0------------------| 2---------- 4-------- 4------ 4|
D|--------------------------------|-------------------- 4------ 4--|
A| 2------------------------------| 0---------- 2------------------|
E|------------ 3------------------|--------------------------------|
http://classicalguitartablature.blogspot.com/
E|-- 5 2--------------------------|------ 0------------------------|
B| 3---- 5-- 3 0---------- 0-- 0--| 2---------- 3---- 2 0----------|
G|-------------------------- 2----| 2---------- 2---------- 2------|
D|-------------------- 0----------| 2-- 2------ 0-------------- 0--|
A| 2------------------------------| 0---------- 2------------------|
E|------------ 3------------------|--------------------------------|
http://classicalguitartablature.blogspot.com/
E|------------ 5------ 3---- 2-- 0|---- 0------ 2------------------|
B|-------- 3-- 0---------------- 2|------ 3---- 3---------------- 2|
G|---- 4------ 0------------------| 2---------- 4-------- 4------ 4|
D|--------------------------------|-------------------- 4------ 4--|
A| 2------------------------------| 0---------- 2------------------|
E|------------ 3------------------|--------------------------------|
http://classicalguitartablature.blogspot.com/
E|-- 5 2--------------------------| 0------------------------------|
B| 3---- 5-- 3 0------------ 0 3--| 0------------------------------|
G|------------------------ 0------|--------------------------------|
D|-------------------- 0----------|--------------------------------|
A| 2------------------------------|--------------------------------|
E|------------ 3------------------| 0------------------------------|
http://classicalguitartablature.blogspot.com/

0 ความคิดเห็น:

แสดงความคิดเห็น