To celebrate the anniversary, I am giving you (finally...) : iPhone LickByNeck !!!!!!

Love Is A Many Splendored Thing (BASIC)

The Four Aces' tune fingerstyle chord melody guitar BASIC arrangement played in the key of C.

Love Is A Many Splendored Thing-The Four Aces-BASIC ARRANGEMENT played in the key of C.
http://classicalguitartablature.blogspot.com/
E| 8-------------- 8--------------|---- 5-- 7-- 8-- 5------ 7------|
B| 5---------- 5-------------- 6--|---- 6---------- 3--------------|
G| 5------ 5-------------- 6------|---- 5---------- 4--------------|
D|---- 5-------------- 6----------|-------------------- 3------ 3--|
A| 0-------------- 6--------------| 5------------------------------|
E|--------------------------------|---------------- 3--------------|
http://classicalguitartablature.blogspot.com/
E| 8-------------- 8--------------| 8------------ 8----------------|
B| 6---------- 6-- 6---------- 6--| 8---------- 8 8------------ 8--|
G| 5------ 5------ 5------ 5------|-------- 7------------ 8--------|
D|---- 4-------------- 7----------|---- 6-------------- 7----------|
A|---------------- 0--------------|--------------------------------|
E| 4------------------------------| 6-------------- 7--------------|
http://classicalguitartablature.blogspot.com/
http://classicalguitartablature.blogspot.com/
E| 8------------------------------|---------- 5 7-- 8------------ 7|
B| 8---------- 8------------------|---------- 5 5------10----10----|
G|-------- 7------------ 7--------|-------- 5 5 5-- 9---- 9--------|
D|---- 7-------------- 7------ 7--|---- 7--------------------------|
A|--------------------------------| 0------------10----------------|
E| 8-------------- 7--------------|------------------------------ 0|
http://classicalguitartablature.blogspot.com/
E|---------- 3-- 0----------------|--------------------------------|
B|------ 0------------------------|---------------- 6------ 8------|
G|---- 0---------------- 0--------|-------- 0------ 7------ 7------|
D|-------------------- 0------ 0--|---- 0------ 0------ 8------ 6--|
A|---------------- 5--------------|------------------------ 7------|
E|--------------------------------| 7-------------- 8--------------|
http://classicalguitartablature.blogspot.com/
E| 5---------- 5-- 5---------- 5--|------------------------------ 0|
B| 6-------------- 6------ 6------|10----------1010---------- 8 6--|
G| 5------ 5---------- 7----------| 9---- 9-------- 7-------- 7 7 2|
D|---- 7--------------------------|----10--------------10---- 6 6--|
A| 8-------------- 8--------------| 8-------------- 8--------------|
E|--------------------------------|-------------------------- 6----|
http://classicalguitartablature.blogspot.com/
E|--------------------------------|--------------------------------|
B| 1------ 1----------------------|---------------- 0---- 1--------|
G|---------------- 2------ 2------|-------- 2------ 2---------- 2--|
D|---- 2------ 2------ 2------ 2--|---- 2------ 2------ 2----------|
A| 0------------------------------|--------------------------------|
E|---------------- 3--------------| 2-------------- 0--------------|
http://classicalguitartablature.blogspot.com/
E|--------------------------------|-------- 5----------------------|
B| 3---------- 3-- 3---------- 3--| 3-------------------------- 1--|
G| 5------ 5------ 3------ 2------| 0---------------------- 2------|
D|---- 3-------------- 3----------|---- 0------ 0------ 3----------|
A| 5-------------- 3--------------| 2-------------- 0--------------|
E|--------------------------------|--------------------------------|
http://classicalguitartablature.blogspot.com/
E|--------------------------------|-------- 1----------------------|
B| 0---------- 0 0------------ 0--| 0-------------------------- 0--|
G| 2---- 2-------------- 2--------|------------------------ 1------|
D|---- 3-------------- 0----------|---- 0------ 0------ 0----------|
A|--------------------------------|---------------- 1--------------|
E| 3------------ 1----------------| 0------------------------------|
http://classicalguitartablature.blogspot.com/
E|-------------------------- 5----|-------------------------- 7----|
B| 1------ 3------ 5--------------| 4------ 5------ 7--------------|
G| 2-------------- 5------ 5------| 2-------------- 8------ 8------|
D|---- 2-------------- 5----------|---- 4------ 4------ 7----------|
A| 0------------------------------|--------------------------------|
E|---------------- 3--------------| 2-------------- 7--------------|
http://classicalguitartablature.blogspot.com/
E| 7---------- 7-------------- 7--|--------------------------------|
B|-------- 0-------------- 0------|------------ 1-------------- 3--|
G|---- 0-------------- 0----------|-------- 2------------ 0--------|
D|--------------------------------|---- 3-------------- 0----------|
A|---------------- 8--------------|-------------- 2----------------|
E| 0------------------------------| 3------------------------------|
http://classicalguitartablature.blogspot.com/
E| 8------------------------------|---------- 5 7-- 8------------ 7|
B| 8---------- 8------------------|---------- 5 5------10----10----|
G|-------- 7------------ 7--------|-------- 5 5 5-- 9---- 9--------|
D|---- 7-------------- 7------ 7--|---- 7--------------------------|
A|--------------------------------| 0------------10----------------|
E| 8-------------- 7--------------|------------------------------ 0|
http://classicalguitartablature.blogspot.com/
E|---------- 3-- 0----------------|--------------------------------|
B|------ 0------------------------|---------------- 6------ 8------|
G|---- 0---------------- 0--------|-------- 0------ 7------ 7------|
D|-------------------- 0------ 0--|---- 0------ 0------ 8------ 6--|
A|---------------- 5--------------|------------------------ 7------|
E|--------------------------------| 7-------------- 8--------------|
http://classicalguitartablature.blogspot.com/
E| 5---------- 5-- 5---------- 5--|--------------------------------|
B| 6-------------- 6------ 6------|10----------1010---------- 8 6--|
G| 5------ 5---------- 7----------| 9---- 9-------- 7-------- 7 7--|
D|---- 7--------------------------|----10--------------10---- 6 6--|
A| 8-------------- 8--------------| 8-------------- 8--------------|
E|--------------------------------|-------------------------- 6----|
http://classicalguitartablature.blogspot.com/
E| 0------------------------------|------------------------ 0------|
B| 1------ 1----------------------|---------------- 3------------ 6|
G| 2-------------- 2------ 2------|-------- 2------ 2------------ 5|
D|---- 2------ 2------ 2------ 2--|---- 2------ 2------ 2------ 2--|
A| 0------------------------------|--------------------------------|
E|---------------- 3--------------| 2-------------- 0--------------|
http://classicalguitartablature.blogspot.com/
E|--------------------------------|---------------- 8------ 7------|
B|---------- 6---- 6---------- 6--| 6---- 5-------- 9--------------|
G|-------- 5-------------- 5------| 7------ 7------ 7--------------|
D|---- 7------ 7------ 7----------|---- 7------ 7------ 9------ 9--|
A| 5------------------------------|--------------------------------|
E|---------------- 8--------------| 7-------------- 0--------------|
http://classicalguitartablature.blogspot.com/
E|-------------------------- 7-- 8|-------------------------- 7----|
B| 6-- 5----------------10----10--|-------- 9-------------- 8------|
G| 5---------- 5------ 9----------|---- 7------ 7---------- 7------|
D| 5------ 5----------------------|-------------------- 6----------|
A| 0--------------10--------------| 8------------------------------|
E|--------------------------------|---------------- 6--------------|
http://classicalguitartablature.blogspot.com/
E| 8-------------- 8--------------|---- 5-- 7-- 8-- 5------ 7------|
B| 5---------- 5-------------- 6--|---- 6---------- 3--------------|
G| 5------ 5-------------- 6------|---- 5---------- 4--------------|
D|---- 5-------------- 6----------|-------------------- 3------ 3--|
A| 0-------------- 6--------------| 5------------------------------|
E|--------------------------------|---------------- 3--------------|
http://classicalguitartablature.blogspot.com/
E| 8-------------- 8--------------| 8------------ 8----------------|
B| 6---------- 6-- 6---------- 6--| 8---------- 8 8------------ 8--|
G| 5------ 5------ 5------ 5------|-------- 7------------ 8------ 7|
D|---- 4-------------- 7----------|---- 6-------------- 7----------|
A|---------------- 0--------------|--------------------------------|
E| 4------------------------------| 6-------------- 7------------ 8|
http://classicalguitartablature.blogspot.com/
E| 8------------------------------|--------------------------------|
B| 7------------------------------|--------------------------------|
G|-------- 7----------------------|--------------------------------|
D|---- 7--------------------------|--------------------------------|
A|--------------------------------|--------------------------------|
E|--------------------------------|--------------------------------|
http://classicalguitartablature.blogspot.com/

0 ความคิดเห็น:

แสดงความคิดเห็น