To celebrate the anniversary, I am giving you (finally...) : iPhone LickByNeck !!!!!!

Love Will Keep Us Together (BASIC)

Captain And Tenniel's tune fingerstyle chord melody guitar BASIC arrangement played in the key of B.

Love Will Keep Us Together-Captain And Tenniel-BASIC ARRANGEMENT played in the key of G.
http://classicalguitartablature.blogspot.com/
E| 2------ 4------ 5------ 4------|--------------------------------|
B|---------------------------- 7--|---- 7-- 9------10------ 9------|
G|--------------------------------|--------------------------------|
D|--------------------------------|---------------------------- 9--|
A| 2------------------------------|------------ 6-- 7-- 8-- 9------|
E|------------ 1---- 2-------- 6--| 7------------------------------|
http://classicalguitartablature.blogspot.com/
E|--------------------------------|--------------------------------|
B| 7------ 9------10---- 9---- 7--|---- 7-- 9----10-------- 9------|
G|--------------------------------|--------------------------------|
D|-------- 7-- 7------------------|--------------------------------|
A|------------------------11-- 9--|-------- 8---------- 9-- 8-- 9--|
E|--------------------------------|--------------------------------|
http://classicalguitartablature.blogspot.com/
http://classicalguitartablature.blogspot.com/
E|-------------------- 4------ 5--|---- 4--------------------------|
B| 7---------- 7-------------- 7--|---- 7------ 7------ 7-- 5-- 7--|
G| 4---------- 4------ 4------ 4--|-- 4-------- 4-------------- 6--|
D| 4---------- 4------------------|------------ 4-------------- 4--|
A|--------------------------------|--------------------------------|
E| 7---------- 7------------------| 7-------------- 7--------------|
http://classicalguitartablature.blogspot.com/
E|-------------------- 4---- 5----|---- 4--------------------------|
B|---- 4------ 4------ 4---- 5----|---- 4------ 7------ 7-- 5-- 7--|
G|---- 6------ 6------ 6------ 6--|---- 6------ 6-------------- 5--|
D|------------ 4------------------|------------ 4-------------- 4--|
A|--------------------------------|--------------------------------|
E| 5-------------- 5--------------| 5-------------- 5--------------|
http://classicalguitartablature.blogspot.com/
E|---------------------------- 5--|---- 4------------ 4------------|
B|---- 4--------------------------|---- 4---- 7------ 4-------- 4--|
G|---- 5------ 5---------- 5------|---------- 5--------------------|
D|-------- 4---------- 4----------|-------- 4------------ 4--------|
A|--------------------------------|--------------------------------|
E| 4-------------- 4--------------| 4-------------- 4--------------|
http://classicalguitartablature.blogspot.com/
E|--------------------------------|--------------------------------|
B|---------------------------- 4--|--------------------------------|
G|---- 4 6---- 4---------- 4------|---- 4-- 6-- 4---------- 4------|
D|---- 6 6------------ 6----------|-------------------- 6------ 6--|
A|--------------------------------|--------------------------------|
E| 0-------------- 0--------------| 0-------------- 0--------------|
http://classicalguitartablature.blogspot.com/
E|--------------------------------|--------------------------------|
B| 4---------------------------- 7|---- 5---- 7--------------------|
G| 4-- 4---- 6-- 4---- 6---- 4-- 4|---------------- 7 6 4-- 4------|
D| 5-- 5---- 5-- 5-------------- 5|--------------------------------|
A|--------------------------------|--------------------------------|
E| 0-------------- 0--------------| 0-------------- 0--------------|
http://classicalguitartablature.blogspot.com/
E|--------------------------------|--------------------------------|
B| 4---------- 4------ 4-- 4-- 4--|-------- 4----------------------|
G| 4---------- 4------ 4-- 4-- 4--|---- 6------ 6------ 4----------|
D| 4---------- 4------ 4-- 4-- 5--|--------------------------------|
A|--------------------------------|--------------------------------|
E| 7---------- 7------------------| 7-------------- 7--------------|
http://classicalguitartablature.blogspot.com/
E|---------------------------- 4--|--------------------------------|
B| 4---------- 4------ 4-- 4-- 4--|---- 4--------------------------|
G| 4---------- 4-------------- 4--|---- 4------ 6 7 6-- 4------ 4--|
D| 6---------- 6------------------|---- 7--------------------------|
A|--------------------------------|--------------------------------|
E| 7---------- 7------------------| 7-------------- 7--------------|
http://classicalguitartablature.blogspot.com/
E|--------------------------------|--------------------------------|
B| 7---- 5---- 7-- 5---- 4-- 5----| 7-------------- 0-- 0------ 0--|
G| 4---- 4---- 4-- 4--------------| 4------ 1----------------------|
D| 6---- 6-- 6---- 4--------------| 6------ 2----------------------|
A|---------------- 6--------------| 4------------------------------|
E| 0------------------------------|-------- 2----------------------|
http://classicalguitartablature.blogspot.com/
E| 2------ 4------ 5------ 4------|--------------------------------|
B| 2-------------------------- 7--|---- 7-- 9------10------ 9------|
G|---------------------------- 7--|--------------------------------|
D|--------------------------------| 9-------------------------- 9--|
A| 2------------------------------|------------ 6-- 7-- 8-- 9------|
E|------------ 1---- 2-------- 6--| 7------------------------------|
http://classicalguitartablature.blogspot.com/
E|--------------------------------|--------------------------------|
B| 7------ 9------10---- 9---- 7--|---- 7-- 9----10-------- 9------|
G|--------------------------------|--------------------------------|
D|-------- 7-- 7------------------|--------------------------------|
A|------------------------11-- 9--|-------- 8---------- 9-- 8-- 9--|
E|--------------------------------|--------------------------------|
http://classicalguitartablature.blogspot.com/
E|--------------------------------| 0------ 0----------------------|
B| 7---------- 5------------------| 2------ 2-- 3------ 0----------|
G| 7---------- 7---------- 7------| 2------ 2-- 1------ 1----------|
D| 7-- 7-------- 7---- 7----------|------------ 2------ 2------ 2--|
A| 5---------- 5------------------| 0------------------------------|
E|--------------------------------|---------------- 0--------------|
http://classicalguitartablature.blogspot.com/
E|---------------- 0------ 0------|--------------------------------|
B| 3-- 3------ 3------ 3------ 7--|---- 7-------------- 7----------|
G| 0-- 0------ 0-------------- 4--|---- 4-------------- 4----------|
D| 0-- 0------ 0-------------- 4--|---- 4-------------- 4----------|
A|--------------------------------|--------------------------------|
E| 3---------- 3------------------| 7---------- 7-- 7---------- 7--|
http://classicalguitartablature.blogspot.com/
E|--------------------------------| 0------ 0----------------------|
B| 7---------- 5------------------| 2------ 2-- 3------ 0----------|
G| 7---------- 7---------- 7------| 2------ 2-- 1------ 1----------|
D| 7-- 7-------- 7---- 7----------|------------ 2------ 2------ 2--|
A| 5---------- 5------------------| 0------------------------------|
E|--------------------------------|---------------- 0--------------|
http://classicalguitartablature.blogspot.com/
E|---------------- 0------ 0------|------ 7---------------- 7------|
B| 3-- 3------ 3------ 3------ 7--|------------ 7---------- 7-- 7--|
G| 0-- 0------ 0-------------- 9--|------------ 9-------------- 9--|
D| 0-- 0------ 0-------------- 9--|--------------------------------|
A|--------------------------------| 9-- 9-------- 9---- 9----------|
E| 3---------- 3------------------|--------------------------------|
http://classicalguitartablature.blogspot.com/
E|-------- 7-------------- 7------|-------------------- 4------ 5--|
B|------------ 7---------- 7-- 7--| 7---------- 7-------------- 7--|
G|------------ 9------------------| 4---------- 4------ 4------ 4--|
D|--------------------------------| 4---------- 4------------------|
A| 9-- 9---------- 9-- 9----------|--------------------------------|
E|--------------------------------| 7---------- 7------------------|
http://classicalguitartablature.blogspot.com/
E|---- 4--------------------------|-------------------- 4---- 5----|
B|---- 7------ 7------ 7-- 5-- 7--|---- 4------ 4------ 4---- 5----|
G|-- 4-------- 4-------------- 6--|---- 6------ 6------ 6------ 6--|
D|------------ 4-------------- 4--|------------ 4------------------|
A|--------------------------------|--------------------------------|
E| 7-------------- 7--------------| 5-------------- 5--------------|
http://classicalguitartablature.blogspot.com/
E|---- 4--------------------------|---------------------------- 5--|
B|---- 4------ 7------ 7-- 5-- 7--|---- 4--------------------------|
G|---- 6------ 6-------------- 5--|---- 5------ 5---------- 5------|
D|------------ 4-------------- 4--|-------- 4---------- 4----------|
A|--------------------------------|--------------------------------|
E| 5-------------- 5--------------| 4-------------- 4--------------|
http://classicalguitartablature.blogspot.com/
E|---- 4------------ 4------------|--------------------------------|
B|---- 4---- 7------ 4-------- 4--|---------------------------- 4--|
G|---------- 5--------------------|---- 4 6---- 4---------- 4------|
D|-------- 4------------ 4--------|---- 6 6------------ 6----------|
A|--------------------------------|--------------------------------|
E| 4-------------- 4--------------| 0-------------- 0--------------|
http://classicalguitartablature.blogspot.com/
E|--------------------------------|--------------------------------|
B|--------------------------------| 4---------------------------- 7|
G|---- 4-- 6-- 4---------- 4------| 4-- 4---- 6-- 4---- 6---- 4-- 4|
D|-------------------- 6------ 6--| 5-- 5---- 5-- 5-------------- 5|
A|--------------------------------|--------------------------------|
E| 0-------------- 0--------------| 0-------------- 0--------------|
http://classicalguitartablature.blogspot.com/
E|--------------------------------|--------------------------------|
B|---- 5---- 7--------------------| 4---------- 4------ 4-- 4-- 4--|
G|---------------- 7 6 4-- 4------| 4---------- 4------ 4-- 4-- 4--|
D|--------------------------------| 4---------- 4------ 4-- 4-- 5--|
A|--------------------------------|--------------------------------|
E| 0-------------- 0--------------| 7---------- 7------------------|
http://classicalguitartablature.blogspot.com/
E|--------------------------------|---------------------------- 4--|
B|-------- 4----------------------| 4---------- 4------ 4-- 4-- 4--|
G|---- 6------ 6------ 4----------| 4---------- 4-------------- 4--|
D|--------------------------------| 6---------- 6------------------|
A|--------------------------------|--------------------------------|
E| 7-------------- 7--------------| 7---------- 7------------------|
http://classicalguitartablature.blogspot.com/
E|--------------------------------|--------------------------------|
B|---- 4--------------------------| 7---- 5---- 7-- 5---- 4-- 5----|
G|---- 4------ 6 7 6-- 4------ 4--| 4---- 4---- 4-- 4--------------|
D|---- 7--------------------------| 6---- 6-- 6---- 4--------------|
A|--------------------------------|---------------- 6--------------|
E| 7-------------- 7--------------| 0------------------------------|
http://classicalguitartablature.blogspot.com/
E|--------------------------------|--------------------------------|
B| 7-------------- 0-- 0------ 0--| 7---- 5---- 7-- 5---- 4-- 5----|
G| 4------ 1----------------------| 4---- 4---- 4-- 4--------------|
D| 6------ 2----------------------| 6---- 6-- 6---- 4--------------|
A| 4------------------------------|---------------- 6--------------|
E|-------- 2----------------------| 0------------------------------|
http://classicalguitartablature.blogspot.com/
E|--------------------------------|--------------------------------|
B| 7-------------- 0-- 0------ 0--| 7---- 5---- 7-- 5---- 4-- 5----|
G| 4------ 1----------------------| 4---- 4---- 4-- 4--------------|
D| 6------ 2----------------------| 6---- 6-- 6---- 4--------------|
A| 4------------------------------|---------------- 6--------------|
E|-------- 2----------------------| 0------------------------------|
http://classicalguitartablature.blogspot.com/
E|--------------------------------| 2------ 4------ 5------ 4------|
B| 7-------------- 0-- 0------ 0--| 2-------------------------- 7--|
G| 4------ 1----------------------|---------------------------- 7--|
D| 6------ 2----------------------|--------------------------------|
A| 4------------------------------| 2------------------------------|
E|-------- 2----------------------|------------ 1---- 2-------- 6--|
http://classicalguitartablature.blogspot.com/
E|--------------------------------|--------------------------------|
B|---- 7-- 9------10------ 9------| 7------ 9------10---- 9---- 7--|
G|--------------------------------|--------------------------------|
D| 9-------------------------- 9--|-------- 7-- 7------------------|
A|------------ 6-- 7-- 8-- 9------|------------------------11-- 9--|
E| 7------------------------------|--------------------------------|
http://classicalguitartablature.blogspot.com/
E|--------------------------------|--------------------------------|
B|---- 7-- 9----10-------- 9------| 0------------------------------|
G|--------------------------------| 2------------------------------|
D|--------------------------------| 1------------------------------|
A|-------- 8---------- 9-- 8-- 9--| 2------------------------------|
E|--------------------------------|--------------------------------|
http://classicalguitartablature.blogspot.com/
E|--------------------------------|--------------------------------|
B|--------------------------------|--------------------------------|
G|--------------------------------|--------------------------------|
D|--------------------------------|--------------------------------|
A|--------------------------------|--------------------------------|
E|--------------------------------|--------------------------------|
http://classicalguitartablature.blogspot.com/

0 ความคิดเห็น:

แสดงความคิดเห็น