To celebrate the anniversary, I am giving you (finally...) : iPhone LickByNeck !!!!!!

Miss You Like Crazy (Nice Modulations)

Natalie Cole's tune fingerstyle chord melody guitar BASIC arrangement played in the key of D.

Miss You Like Crazy-Natalie Cole-Nice Modulation-BASIC ARRANGEMENT played in the key of D.
http://classicalguitartablature.blogspot.com/
E|------ 5---- 7------------------|------------ 5------------------|
B| 7-- 8------10------10----------| 7-- 810---- 8------ 8---- 5 7--|
G| 6---------- 9------ 9---- 9-- 9|---------- 7-------- 7----------|
D| 7---------------------- 7---- 7|------------------------ 5------|
A| 5------------------------------|--------------------------------|
E|------------ 9---------------- 8|---------- 7--------------------|
http://classicalguitartablature.blogspot.com/
E|------ 5------------ 5----------|--------------------------------|
B| 8---------- 8-- 8---- 7--------| 7---- 5-------- 3------ 5------|
G| 7-------------- 7---------- 7--| 4---- 4---- 4-- 4------ 4------|
D| 5-------------- 7--------------| 6------------ 5---- 5------ 5--|
A|-------------- 0----------------|--------------------------------|
E| 6------------------------------| 4------------ 5----------------|
http://classicalguitartablature.blogspot.com/
http://classicalguitartablature.blogspot.com/
E|--------------------------------|---------------- 3-- 2----------|
B|---- 7-- 7-- 7 7-- 8-- 7--------| 5------ 5------ 2---------- 5--|
G|---- 6-- 6-- 6 6-- 6-- 6---- 7--| 4---- 4---- 2-- 3 3------------|
D|---- 7-- 7-- 7 7-- 7-- 7--------|---- 5------------------ 2------|
A| 5------------------------------| 4------------------------------|
E|--------------------------------|---------------- 2--------------|
http://classicalguitartablature.blogspot.com/
E|-- 2------------ 2 2 2 0--------|---------------- 2 2 2 0--------|
B| 5-- 3 3-------- 3------ 3------|---- 5-- 3------ 3-------- 3----|
G| 2---- 2------ 2 4---------- 4--| 2------ 2---- 2 4---------- 4--|
D| 4-------- 4--------------------| 2---- 4-- 4--------------------|
A| 2------------------------------|------ 2------------------------|
E|------------ 5-- 3--------------| 2------------ 3----------------|
http://classicalguitartablature.blogspot.com/
E|--------------------------------| 3 2 3-- 2----------------------|
B|---- 5-- 3---------- 0----------| 3 2 3-- 2-- 3 3-------- 3------|
G| 2------ 2---- 2 0 2---- 2---- 4|-- 4 4-- 4------------ 2-- 2----|
D| 2---- 4-- 4-- 2 2---------- 2--|-------------------- 4-------- 4|
A|------ 2---------------------- 0|---------------- 5--------------|
E| 2------------ 0----------------|--------------------------------|
http://classicalguitartablature.blogspot.com/
E|--------------------------------|------ 2---- 4------------------|
B|---- 5--------------------------| 4-- 5------ 7------ 7----------|
G|---- 4------ 4------ 3----------| 3---------- 6------ 6------ 6--|
D|-- 5------ 2------ 2-------- 4--| 4---------------------- 4---- 4|
A| 4-------------------- 3--------| 2------------------------------|
E|-------- 3------ 2--------------|------------ 6---------------- 5|
http://classicalguitartablature.blogspot.com/
E|------------ 2------------------|--------------------------------|
B| 4-- 5 7---- 5------ 5-------- 5| 5 5 5---- 5---- 5 4 4------ 4--|
G| 6---------- 4------ 4------ 4--| 4 4-- 4-- 4---- 4 4 4------ 4--|
D|------------------------ 2------| 2-- 2 2-- 2-- 4-- 4 4-- 4------|
A|--------------------------------|--------------------------------|
E|---------- 4--------------------| 3------------ 2----------------|
http://classicalguitartablature.blogspot.com/
E|-------------- 4-- 2-- 2---- 2--|------ 5---- 7------------------|
B| 4 2-- 2------ 2-- 2 2------ 2 7|---- 8------10------10----------|
G| 4 4-- 4---- 4 4---- 4 4-- 4-- 6|------------ 9------ 9---- 9-- 9|
D| 2 2-- 2-- 2------------ 2------| 7---------------------- 7---- 7|
A|--------------------------------| 5------------------------------|
E| 2------ 2------ 2---- 0--------|------------ 9---------------- 8|
http://classicalguitartablature.blogspot.com/
E|------------ 5------------------|--------------------------------|
B| 7-- 810---- 8------ 8---- 5 7--| 8 8-- 8-- 8-- 8-- 7 7------ 7--|
G|---------- 7-------- 7----------| 7 7-- 7-- 7-- 7-- 7 7---- 7----|
D|------------------------ 5------| 5 5-- 5---- 5 7-- 7 7-- 7------|
A|--------------------------------|------------ 0-- 0--------------|
E|---------- 7--------------------| 6------------------------------|
http://classicalguitartablature.blogspot.com/
E|---------------- 7 5-- 5------ 5|------ 8----10------ 8------ 8--|
B| 7-- 5 5------ 5 5-- 5 2--------|10--11------ 8------ 8---- 8----|
G| 7-- 7 7---- 7-- 7---- 2---- 2--| 9---------- 9------ 9-- 9---- 5|
D| 5-- 5 5-- 5-------------- 2----|10------------------------------|
A| 0------ 0------ 0------------ 8|------------ 7---------------- 6|
E|------------------------ 3------|--------------------------------|
http://classicalguitartablature.blogspot.com/
E| 5 6-- 8---- 8------------------|--------------------------------|
B| 8----------11----11--------1111|----1111--11----11--1010----10--|
G|------------10----10------10--10|----1010--10----10--1010--------|
D|------------------ 8-- 8------ 8|---- 8 8-- 8 8--10--1010--10----|
A|--------------------------------|--------------------------------|
E|----------10------------------ 9|---------------- 8--------------|
http://classicalguitartablature.blogspot.com/
E|--------------10-- 8 8----------|--------------------------------|
B|10-- 8 8---- 8 8-- 8-------- 5--|------ 4---- 6------ 4-------- 4|
G|10--1010--10--10---------- 5----| 5 6 5------ 3------ 3------ 3--|
D| 8-- 8 8-- 8------------ 5---- 6|------------ 5------ 5-- 5---- 1|
A|--------------------------------|--------------------------------|
E| 8------ 8------ 8---- 6------ 4|---------- 3------------------ 2|
http://classicalguitartablature.blogspot.com/
E|--------------------------------|--------------------------------|
B| 1-- 2 4---- 4------ 2------ 2--| 2 2 4---- 2--------------------|
G| 3---------- 1------ 1---- 1----| 3 3-- 3-- 3---- 6-- 5 5--------|
D|------------ 3------ 3-- 3------| 2-- 2 2-- 2 2-- 6-------- 6----|
A|--------------------------------|---------------- 6--------------|
E|------------ 1---------------- 0|--------------------------------|
http://classicalguitartablature.blogspot.com/
E|--------------------------------|-------------------------- 6----|
B|---------------- 6---- 4---- 4 4|---- 4 6---- 7------ 7-- 9------|
G| 5-- 3------ 3-- 6-------- 3-- 3|-- 3-- 7-- 7------ 6---------- 4|
D| 5 5------ 5---- 6 6------ 5----|-- 4------ 6---- 8--------------|
A| 6-------------- 6------ 4---- 2|-------------- 6----------------|
E|--------------------------------|------ 6---------------------- 4|
http://classicalguitartablature.blogspot.com/
E| 7 7 7 7-- 6------ 6-- 6--------|---------------------------- 6--|
B| 4 4 4-- 4 4-- 7 9 9-- 9------ 9| 4---- 4 6---- 9-- 7------ 9----|
G|-- 4 4---------- 6 6-- 6---- 6--|---- 3-- 7-- 7 6-- 6-- 6--------|
D|-------------- 8---------- 8----|-- 4------ 6-- 8---- 8----------|
A|------ 4-------- 9--------------| 2-------------- 6--------------|
E|--------------------------------|-------- 6----------------------|
http://classicalguitartablature.blogspot.com/
E| 7 7 7 7 7 6------ 9-- 6 4------|--------------------------------|
B| 4 4 4 4 7-- 9 7-- 7-- 7 4------| 4------ 4---------- 4----------|
G| 4 4 4 4 6-------- 8---- 4------| 4---- 4---- 4-------------- 6--|
D|---------------------------- 4--|---- 4---------- 4--------------|
A|------------------------ 4------|------------------------ 4------|
E| 4------ 6------ 7--------------|--------------------------------|
http://classicalguitartablature.blogspot.com/
E| 6 6 6--------------------------| 6 6----------------------------|
B| 7 7 7 9-- 7------ 9-- 7--------| 7 7-- 9 7-------- 9---- 7------|
G| 8-- 8------ 8-- 6---- 6---- 6 8|---- 8---- 8---- 6 6---- 6-- 6--|
D|-------------- 6------ 8-- 8----|-------------- 6-- 6-- 8-- 8----|
A|---------------------- 6--------|---------------------- 6--------|
E| 7------------ 6-------------- 7|-------------- 6----------------|
http://classicalguitartablature.blogspot.com/
E|---------------- 7 6 7-- 6---- 2|--------------------------------|
B|---- 2 4------ 2 4 4 4-- 4-- 7--|---------- 2---------------- 2--|
G| 4 4-------- 4-- 4 4 4-- 4------|------ 3---- 3-------- 4--------|
D| 4 4------ 4--------------------|---- 4-------- 4-- 4---- 4------|
A|-------------- 4----------------|---------------- 4--------------|
E| 4------------------------------| 2------------------------------|
http://classicalguitartablature.blogspot.com/
E|------ 9----11------ 9-------- 9|-- 7-- 9---- 9---- 7-------- 7--|
B|11--12------ 9------ 9---- 9-- 9|------------ 7---- 7------ 7----|
G|10----------10------10--10---- 6|------------ 8------ 8-- 8------|
D|11------------------------------|--------------------------------|
A| 9---------- 8------------------| 7---------- 6------------------|
E|--------------------------------|--------------------------------|
http://classicalguitartablature.blogspot.com/
E|--------------------------------|------------11---- 9-- 9------ 9|
B|121212--12--12--12--1111------11|11 9-- 9---- 9---- 9-- 9--------|
G|111111--11------11--1111----11--|1111--11----11--11--11------11--|
D| 9 9 9------ 9--11--1111--11----| 9-- 9 9-- 9-------------- 9----|
A|--------------------------------|--------------------------------|
E|10-------------- 9------------ 9|---------------- 9--------------|
http://classicalguitartablature.blogspot.com/
E|11-- 9--11-- 9--11-- 9--11 9----| 9 9-- 9--11---- 9 7-- 7-- 7----|
B|11--11---------- 9-- 9-- 9 9----| 9 9-- 9---- 9-- 7 7-- 7-- 7-- 7|
G|10----10------1010----1010--10--| 6 6-- 6-------- 8 8-- 8 8------|
D|--------------------------------|--------------------------------|
A| 9-------------- 8--------------|---------------- 6------------ 5|
E|------------------------------ 0|--------------------------------|
http://classicalguitartablature.blogspot.com/
E|---- 0--------------------------|--------------------------------|
B|-------- 7------1211--11------11|11-- 9-- 9------ 7------ 6------|
G| 4 4-------- 4--1111--11--11----| 8-- 8-- 8-- 8-- 7------ 5------|
D| 6 6----------11--11--1111------|10--10--10------ 6-- 6 4---- 4--|
A|--------------------------------|--------------------------------|
E|-------------- 9-------------- 8|---------------- 7---- 5------ 4|
http://classicalguitartablature.blogspot.com/
E|--------------------------------| 2------------------------------|
B| 7---------- 7-------------- 7--| 5---------- 5-------------- 5--|
G|-------- 4------ 4------ 4---- 4|-------- 4---- 4-------- 4------|
D| 4-- 4-------------- 4----------|---- 2-------------- 2----------|
A|--------------------------------|--------------------------------|
E|------------------------------ 3|--------------------------------|
http://classicalguitartablature.blogspot.com/
E|---- 2--------------------------|--------------------------------|
B|-- 1----------------------------|--------------------------------|
G|-- 1----------------------------|--------------------------------|
D| 1------------------------------|--------------------------------|
A|--------------------------------|--------------------------------|
E| 2------------------------------|--------------------------------|
http://classicalguitartablature.blogspot.com/

0 ความคิดเห็น:

แสดงความคิดเห็น