To celebrate the anniversary, I am giving you (finally...) : iPhone LickByNeck !!!!!!

Spanish Eyes (BASIC)

Elvis Presley's tune fingerstyle chord melody guitar BASIC arrangement played in the key of G.

Spanish Eyes-Elvis Presley -BASIC ARRANGEMENT played in the key of G.
http://classicalguitartablature.blogspot.com/
E|-------- 7------ 8------10------|12--12----10---- 8---- 7--------|
B|--------------------------------|--------------------------------|
G|------ 7-------- 9------11------|12--12----11---- 9---- 7--------|
D|--------------------------------|--------------------------------|
A|--------------------------------|---------------------- 0--------|
E|--------------------------------|10----------10------------------|
http://classicalguitartablature.blogspot.com/
E| 2-------- 3---- 5---- 2--------| 3------------------------------|
B| 3---- 3------------------------| 3------ 3----------------------|
G|---- 2---- 4---- 5---- 2--------|------ 4------------ 4----------|
D|-- 4----------------------------|---- 5---------- 5---------- 5--|
A| 5-------- 5---- 5------ 0------|------------------------ 5------|
E|--------------------------------| 3---------- 3------------------|
http://classicalguitartablature.blogspot.com/
http://classicalguitartablature.blogspot.com/
E|--------------------------------|--------------------------------|
B|-------- 3----------------------| 0------ 0----------------------|
G|------ 4------------ 4----------|------ 0------------ 0----------|
D|---- 5---------- 5---------- 5--|---- 0---------- 0---------- 0--|
A|------------------------ 5------|------------------------ 5------|
E| 3---------- 3------------------| 3---------- 3------------------|
http://classicalguitartablature.blogspot.com/
E|--------------------------------|--------------------------------|
B|-------------------- 0----------| 3------------------------------|
G|------ 0------------ 0------ 5--| 4---- 4------------ 4----------|
D|---- 0-- 0------ 0--------------|---- 5-- 5------ 5---------- 5--|
A|------------------------ 5------|------------------------ 5------|
E| 3---------- 3------------------| 3---------- 3------------------|
http://classicalguitartablature.blogspot.com/
E|--------------------------------|--------------------------------|
B|-------- 0----------------------| 0-- 0------ 1-- 3------ 5------|
G|------ 0------------ 0----------| 0-- 0------ 0-- 0------ 0------|
D|---- 0---------- 0---------- 0--| 0------ 0-- 0------ 0------ 0--|
A|---------------------- 5--------|------------------------ 5------|
E| 3---------- 3------------------| 3---------- 3---------------- 3|
http://classicalguitartablature.blogspot.com/
E|-- 2-------- 3------ 5-- 7------| 8------------------------------|
B|---- 0------ 0------ 0-- 0------| 7------ 7----------------------|
G|-------- 0------ 0------ 0------| 5---- 5------------ 5----------|
D|--------------------------------|---- 7---------- 7---------- 7--|
A|------------------------ 5------| 5---------- 5---------- 0------|
E|------------ 3------------------|--------------------------------|
http://classicalguitartablature.blogspot.com/
E|--------------------------------|--------------------------------|
B|-------- 7----------------------|-------- 3----------------------|
G|------ 5------------ 5----------| 2---- 2------------ 2----------|
D|---- 7---------- 7---------- 7--|---- 4---------- 4---------- 4--|
A| 5---------- 5---------- 0------| 5---------- 5---------- 0------|
E|--------------------------------|--------------------------------|
http://classicalguitartablature.blogspot.com/
E|--------------------------------|--------------------------------|
B|-------- 3----------------------|-------- 3----------------------|
G|------ 2------------ 2------ 4--| 5---- 5------------ 5----------|
D|---- 4---------- 4--------------|---- 4---------- 4---------- 4--|
A| 5---------- 5---------- 0------| 5---------- 5---------- 0------|
E|--------------------------------|--------------------------------|
http://classicalguitartablature.blogspot.com/
E|--------------------------------|--------------------------------|
B|-------- 3----------------------|---------- 0---------------- 3--|
G|------ 5------------ 5----------| 2-- 2------ 2------ 2-- 5------|
D|---- 4-------- 4------------ 4--| 4------ 4------ 4------ 4------|
A| 5-------- 5------------ 0------| 5---------- 5---------- 0------|
E|--------------------------------|--------------------------------|
http://classicalguitartablature.blogspot.com/
E|------------------------ 5-- 7--|--------------------------------|
B| 5---------- 7-- 8------ 7------|-------- 8----------------------|
G|------ 5---- 5---------- 5------|------ 7------------ 7----------|
D|-- 7---- 7---------- 7----------|---- 9---------- 9---------- 9--|
A| 5---------- 5---------- 0------|10----------10------------------|
E|--------------------------------|------------------------10------|
http://classicalguitartablature.blogspot.com/
E|--------------------------------|--------------------------------|
B|-------- 3----------------------| 0------ 0----------------------|
G|------ 4------------ 4----------|------ 0------------ 0----------|
D|---- 5---------- 5---------- 5--|---- 0---------- 0---------- 0--|
A|------------------------ 5------|------------------------ 5------|
E| 3---------- 3------------------| 3---------- 3------------------|
http://classicalguitartablature.blogspot.com/
E|--------------------------------|--------------------------------|
B|-------------------- 0----------| 3------------------------------|
G|------ 0------------ 0------ 5--| 4---- 4------------ 4----------|
D|---- 0-- 0------ 0--------------|---- 5-- 5------ 5---------- 5--|
A|------------------------ 5------|------------------------ 5------|
E| 3---------- 3------------------| 3---------- 3------------------|
http://classicalguitartablature.blogspot.com/
E|--------------------------------|--------------------------------|
B|-------- 0----------------------| 0-- 0------ 1-- 3------ 5------|
G|------ 0------------ 0----------| 0-- 0------ 0-- 0------ 0------|
D|---- 0---------- 0---------- 0--| 0------ 0-- 0------ 0------ 0--|
A|---------------------- 5--------|------------------------ 5------|
E| 3---------- 3------------------| 3---------- 3------------------|
http://classicalguitartablature.blogspot.com/
E|---------- 3-- 5------ 3------12|--------------------------------|
B| 6---------------------------- 8|--------------------------------|
G|------ 4------------------------|---- 9------------ 9------------|
D|-- 3---- 3-------- 3------ 3----|--10--10--------10--------10----|
A|---------------------- 5--------|------------------------10------|
E| 3---------- 3------------------| 8---------- 8------------------|
http://classicalguitartablature.blogspot.com/
E|--------------------------------|11------------------------------|
B|-------- 8----------------------|10------10----------------------|
G|------ 9------------ 9----------|------ 8------------ 8------ 8--|
D|----10----------10----------10--|----10----------10--------------|
A|------------------------10------|------------------------10------|
E| 8---------- 8------------------| 8---------- 8------------------|
http://classicalguitartablature.blogspot.com/
E|------------13--------------11--|10------------------------------|
B|--------10----------10------10--|------ 8------------ 8----------|
G|------ 8-------- 8---------- 8--|---- 7-- 7------ 7---------- 7--|
D|----10--------------------------|--------------------------------|
A|------------------------10------|10----------10------------------|
E| 8---------- 8------------------|------------------------10------|
http://classicalguitartablature.blogspot.com/
E|------------------------ 7------| 8-- 8------ 7------ 5----------|
B|-------- 3----------------------| 5-- 5------ 5------ 5-- 8-- 7--|
G|------ 4------------ 4----------| 5-- 5------ 5------ 5-- 5------|
D|---- 5---------- 5---------- 5--|-------- 5------ 5------ 5------|
A|--------------------------------| 5---------- 5---------- 0------|
E| 3---------- 3---------- 3------|--------------------------------|
http://classicalguitartablature.blogspot.com/
E|---------------- 5--------------| 3------------------------------|
B|------------ 8-------------- 7--| 3------ 3----------------------|
G|------ 5---- 5-------------- 5--| 4---- 4------------ 4----------|
D|---- 7-- 7-- 7------ 7------ 7--|---- 5---------- 5---------- 5--|
A| 5---------- 5---------- 0------|------------------------ 5------|
E|--------------------------------| 3---------- 3------------------|
http://classicalguitartablature.blogspot.com/
E|-------------------------- 7----| 8-- 8------ 7------ 5----------|
B|-------- 3----------------------| 5-- 5------ 5------ 5-- 8-- 7--|
G|------ 4------------ 4----------| 5-- 5------ 5------ 5-- 5------|
D|-- 5------------ 5--------------|-------- 5------ 5------ 5------|
A|------------------------ 5------| 5---------- 5---------- 0------|
E| 3---------- 3------------------|--------------------------------|
http://classicalguitartablature.blogspot.com/
E|---------------- 5--------------| 3------------------------------|
B|------------ 8-------------- 7--| 3------ 3----------------------|
G|------ 5---- 5-------------- 5--| 4---- 4------------ 4----------|
D|---- 7-- 7-- 7------ 7------ 7--|---- 5---------- 5---------- 5--|
A| 5---------- 5---------- 0------|------------------------ 5------|
E|--------------------------------| 3---------- 3------------------|
http://classicalguitartablature.blogspot.com/
E|------ 3-- 3---- 3--------------|--------------------------------|
B| 3---- 3-- 3---- 3--------------|--------------------------------|
G| 4------ 4 4---- 4--------------|--------------------------------|
D| 5------------------------------|--------------------------------|
A|--------------------------------|--------------------------------|
E| 3------ 3-- 3-- 3--------------|--------------------------------|
http://classicalguitartablature.blogspot.com/

0 ความคิดเห็น:

แสดงความคิดเห็น