To celebrate the anniversary, I am giving you (finally...) : iPhone LickByNeck !!!!!!

Thank You For Loving Me (BASIC)

Bon Jovi's tune fingerstyle chord melody guitar BASIC arrangement played in the key of G.

Thank You For Loving Me-Bon Jovi- BASIC ARRANGEMENT played in the key of G.
http://classicalguitartablature.blogspot.com/
E|--------------------------------|-------- 0----------------------|
B| 0------ 0------ 0------ 0------| 0-------------- 3------ 0------|
G| 0------ 0------ 0---------- 0--|-- 2 0-------------------- 2 0--|
D|---- 0------ 0------ 0----------|------------ 0------ 0----------|
A|--------------------------------|--------------------------------|
E| 3------------------------------| 3------------------------------|
http://classicalguitartablature.blogspot.com/
E|--------------------------------|-------- 0----------------------|
B|------------------ 1------------| 0------ 0------ 3---- 0--------|
G| 0-- 2------ 0---------- 0-- 0--| 0 2 0-- 0------ 0-------- 2----|
D| 2---- 2------ 2----------------|------------ 2------ 2----------|
A| 3------------------------------|--------------------------------|
E|--------------------------------| 0------------------------------|
http://classicalguitartablature.blogspot.com/
http://classicalguitartablature.blogspot.com/
E|--------------------------------|--------------------------------|
B|--------------------------------|--------------------------------|
G| 2---- 2------------------------|-- 0-- 2---- 2---- 0 2------ 2--|
D|---- 5------ 5-- 4---------- 0--| 2-------- 2-- 2---------- 2----|
A| 5------------------------------| 3------------------------------|
E|--------------------------------|--------------------------------|
http://classicalguitartablature.blogspot.com/
E|--------------------------------|--------------------------------|
B|--------------------------------|--------------------------------|
G| 0-- 0 0-------------- 0--------|-- 0-- 2---- 2---- 0 2------ 2--|
D| 0-------- 0 0------ 0------ 0--| 2-------- 2-- 2---------- 2----|
A|--------------------------------| 3------------------------------|
E| 3-------------- 3--------------|--------------------------------|
http://classicalguitartablature.blogspot.com/
E|------------------------ 3-- 2 3|-------------- 3-- 3-- 3--------|
B| 1-- 0-- 0-- 3 3---- 3-- 3 3-- 0|-------- 0---- 1-- 1-- 1-- 0 0--|
G| 0-- 0-- 0-- 0 0---- 0 2-- 2----| 0------ 0------ 0 0-- 0---- 0--|
D| 0-- 0-- 0-- 0 0---- 0----------|---- 2------ 2------------------|
A|--------------------------------|---------------- 3--------------|
E| 3-------------- 3--------------| 0------------------------------|
http://classicalguitartablature.blogspot.com/
E|------------------------------ 0|-- 3 5------------ 3-- 5--------|
B| 3---------- 3---- 3------ 3-- 0|-- 0-------- 0-- 5---------- 5--|
G|---------------- 0------ 2---- 0|-- 0------ 0---- 5-------- 5----|
D| 4-- 4-- 4----------------------|--------------------------------|
A| 5------------------------------|---------------- 3--------------|
E|------------------------------ 3|--------------------------------|
http://classicalguitartablature.blogspot.com/
E| 5-- 5-- 5------ 7------ 7---- 7|---- 5 3---------- 7-- 7--------|
B|-------- 8-- 8-- 8------ 8---- 3|---- 3 3---------------- 3 3----|
G| 5-- 5-- 5-- 5-- 5------ 5---- 4|---- 4 4-------------- 4-- 4----|
D|------------ 7------ 7---- 7----|-------------------------- 5----|
A| 5------ 5------ 5------ 5------|--------------------------------|
E|------------------------------ 3|------------ 3 3------ 3--------|
http://classicalguitartablature.blogspot.com/
E| 0------------------ 3-- 3 5 7--| 5------------------------ 5-- 8|
B| 1------ 1----------------------| 8------ 8-------------- 8---- 0|
G| 0------ 0-------------- 4 5 7--| 5------ 5-------------- 5---- 0|
D|---- 2--------------------------|-- 7---------------- 7----------|
A| 3---------- 3-- 3--------------| 5---------- 5-- 5------------10|
E|------------------------ 0------|--------------------------------|
http://classicalguitartablature.blogspot.com/
E|-- 7-- 7---- 7-------- 7------ 3|---------- 3-- 3---- 3 3---- 0 5|
B|-- 0------------10 8 8 710 8-- 0|------ 0------ 0---- 0 0--------|
G|-- 0------------------ 7------ 0|---- 0------ 0 0---- 0 0--------|
D|--------------------------------|---- 0-- 0----------------------|
A|--------------10------ 9--------|---------------- 5--------------|
E|--------------------------------| 0------------------------------|
http://classicalguitartablature.blogspot.com/
E|---------- 7---------- 7------ 7|-- 5 3---------------- 7---- 5--|
B|-------- 2 5---------- 5--------|-- 3 3---- 3---------- 8---- 5--|
G|------ 2-- 5---------- 5------ 4|-------- 4---- 9------------ 5--|
D|---- 2------------ 5------ 5----|--------------10--10------------|
A| 4-------------- 5--------------|--------------------------------|
E|------------------------------ 3|---------------- 8--------------|
http://classicalguitartablature.blogspot.com/
E|------------------------ 7---- 7|-- 5 3-------- 0----------------|
B|-------- 5-- 5---------- 5------|-- 3 3---- 3---- 1------ 0-- 0--|
G|-------- 5-- 5---------------- 4|-------- 4------ 0--------------|
D|---- 5-- 5---------- 5------ 5--|------------------ 2------------|
A| 5---------- 5-- 5--------------|---------------- 3--------------|
E|------------------------------ 3|--------------------------------|
http://classicalguitartablature.blogspot.com/
E|--------------------------------|------------------------ 7-- 5--|
B|--------------------------------|-- 8-- 8-- 8-- 8 8 8---------- 8|
G|---- 2---- 2---------- 2--------|-- 5-- 5-- 5-- 5 5 5---- 5-- 5 5|
D|-------- 4-- 4------ 4---- 4----|-- 5-- 5-- 5 5-- 5-- 5-------- 5|
A| 5-------------- 5--------------|--------------------------------|
E|--------------------------------| 8-- 8-- 8-- 8-- 8-- 8-- 8-- 8--|
http://classicalguitartablature.blogspot.com/
E|-- 5-- 5---- 5-- 5-- 5 7-- 5----| 8-- 8 8-- 8-- 810 8---- 8------|
B|-- 8 8 8 8 8 8 8-------- 8 8-- 8| 5---- 5-------- 8------ 8------|
G|---- 5-- 5 5 5-- 5-- 5-- 5 5----| 5---- 5 5-- 5 5-- 7---- 9------|
D|--------------------------------|--------------------------------|
A| 5-- 5-- 5-- 5-- 5-- 5-- 5-- 5--| 0 0---- 0-- 0------------------|
E|--------------------------------|---------------- 7-- 7-- 8 8----|
http://classicalguitartablature.blogspot.com/
E| 8 8 8 8------10-------------- 5|--------------------------------|
B| 8 8-- 8------12--13--13----12 8|------ 8------ 8-------- 8------|
G|1010--10------12--12--10----10 7|------ 7------ 7-------- 7------|
D|----------------------10----10--|--------------------------------|
A| 8-- 8 8---- 8--1010--12--12----| 5 5-- 5---- 5-- 5-- 5-- 5-- 5--|
E|--------------------------------|--------------------------------|
http://classicalguitartablature.blogspot.com/
E|10--10--1010--101210--10------ 7|---- 5 3---------- 7-- 7--------|
B|10------10----10------101312-- 3|---- 3 3---------------- 3 3----|
G|11------1111--11--11--1111---- 4|---- 4 4-------------- 4-- 4----|
D|------------------------10--10--|-------------------------- 5----|
A|--------------------------------|--------------------------------|
E|10--10--10--1010--10----10--10 3|------------ 3 3------ 3--------|
http://classicalguitartablature.blogspot.com/
E| 0------------------ 3-- 3 5 7--| 5------------------------ 5-- 8|
B| 1------ 1----------------------| 8------ 8-------------- 8---- 0|
G| 0------ 0-------------- 4 5 7--| 5------ 5-------------- 5---- 0|
D|---- 2--------------------------|-- 7---------------- 7----------|
A| 3---------- 3-- 3--------------| 5---------- 5-- 5------------10|
E|------------------------ 0------|--------------------------------|
http://classicalguitartablature.blogspot.com/
E|-- 7-- 7---- 7-------- 7------ 3|---------- 3-- 3---- 3 3---- 0 5|
B|-- 0------------10 8 8 710 8-- 0|------ 0------ 0---- 0 0--------|
G|-- 0------------------ 7------ 0|---- 0------ 0 0---- 0 0--------|
D|--------------------------------|---- 0-- 0----------------------|
A|--------------10------ 9--------|---------------- 5--------------|
E|--------------------------------| 0------------------------------|
http://classicalguitartablature.blogspot.com/
E|---------- 7---------- 7------ 7|-- 5 3---------------- 7---- 5--|
B|-------- 2 5---------- 5--------|-- 3 3---- 3---------- 8---- 5--|
G|------ 2-- 5---------- 5------ 4|-------- 4---- 9------------ 5--|
D|---- 2------------ 5------ 5----|--------------10--10------------|
A| 4-------------- 5--------------|--------------------------------|
E|------------------------------ 3|---------------- 8--------------|
http://classicalguitartablature.blogspot.com/
E|------------------------ 7---- 7|-- 5 3-------- 0----------------|
B|-------- 5-- 5---------- 5------|-- 3 3---- 3---- 1------ 0-- 0--|
G|-------- 5-- 5---------------- 4|-------- 4------ 0--------------|
D|---- 5-- 5---------- 5------ 5--|------------------ 2------------|
A| 5---------- 5-- 5--------------|---------------- 3--------------|
E|------------------------------ 3|--------------------------------|
http://classicalguitartablature.blogspot.com/
E|--------------------------------|-------- 0----------------------|
B|--------------------------------| 0-------------- 3------ 0------|
G|---- 2---- 2---------------- 0 2|-- 2 0-------------------- 2 0--|
D|-------- 4-- 4------------------|------------ 0------ 0----------|
A| 5------------ 5----------------|--------------------------------|
E|--------------------------------| 3------------------------------|
http://classicalguitartablature.blogspot.com/
E|--------------------------------|-------- 0----------------------|
B|------------------ 1------------| 0------ 0------ 3---- 0--------|
G| 0-- 2------ 0---------- 0-- 0--| 0 2 0-- 0------ 0-------- 2----|
D| 2---- 2------ 2----------------|------------ 2------ 2----------|
A| 3------------------------------|--------------------------------|
E|--------------------------------| 0------------------------------|
http://classicalguitartablature.blogspot.com/
E|--------------------------------|--------------------------------|
B|--------------------------------|--------------------------------|
G| 2------ 2----------------------|--------------------------------|
D|---- 5------ 5-- 4--------------|--------------------------------|
A| 5------------------------------|--------------------------------|
E|--------------------------------|--------------------------------|
http://classicalguitartablature.blogspot.com/

0 ความคิดเห็น:

แสดงความคิดเห็น