To celebrate the anniversary, I am giving you (finally...) : iPhone LickByNeck !!!!!!

When You Tell Me That You Love Me (BASIC)

Diana Ross's tune fingerstyle chord melody guitar BASIC arrangement played in the key of G.

When You Tell Me That You Love Me-Diana Ross-BASIC ARRANGEMENT played in the key of G.
http://classicalguitartablature.blogspot.com/
E|---------------- 3---- 2--------|---------------- 3 2---- 0------|
B|------------ 0-------------- 0--|------------ 0-------------- 3--|
G|-------- 2---------- 2----------|-------- 0----------------------|
D|---- 0--------------------------|---- 4--------------------------|
A|--------------------------------|--------------------------------|
E| 3------------------------------| 0------------------------------|
http://classicalguitartablature.blogspot.com/
E|-------------------------- 2 3--|--------------------------------|
B| 5------ 5------------ 5--------| 8---------- 8-------- 8--------|
G|------------ 2------ 2----------| 5------ 5-------- 5---------- 5|
D|---- 2-------- 2----------------|---- 7---------- 7-------- 7-- 7|
A| 4------------------------------| 5---------------------------- 5|
E|--------------------------------|--------------------------------|
http://classicalguitartablature.blogspot.com/
http://classicalguitartablature.blogspot.com/
E|--------------------------------|--------------------------------|
B| 7---------- 7------------------| 3------------------------ 0 3--|
G|------------------------ 7-- 7--| 0-- 0-- 0------ 0------ 0------|
D|-------- 7----------------------|------------ 0------ 0----------|
A|--------------------------------|--------------------------------|
E|--------------------------------| 3------------------------------|
http://classicalguitartablature.blogspot.com/
E| 0---------------------- 0 0 0 0|---------------------------- 0--|
B| 3---------- 3------------------| 1---------------- 1------ 1----|
G|-------- 0---- 0----------------|---- 0-- 0------ 0------ 0------|
D|---- 4-------------- 4----------|------------ 2------------------|
A|--------------------------------| 3------------------------------|
E| 0------------------------------|--------------------------------|
http://classicalguitartablature.blogspot.com/
E|--------------------------------| 2------------------------------|
B| 7---------- 7-------- 7-- 7 7--| 5------------------------ 4 7--|
G| 5------ 5------------ 7-- 7 7--| 4-- 4-- 4------------ 4--------|
D|---- 5-------------- 7----------|---- 4-- 4-- 4------ 4----------|
A| 5------------------------------| 2-------------- 6--------------|
E|---------------- 8--------------|--------------------------------|
http://classicalguitartablature.blogspot.com/
E| 3---------------------- 0 0 0--| 0---- 0------------------------|
B|------------ 0---------- 0 0 0--| 1-- 3 3-------------- 1-- 3 1 3|
G|-------- 0-------------- 0 0 0--| 0-- 0 0---- 0---------------- 5|
D|---- 0-------- 0---- 0----------|---- 2---- 2-- 2---- 2----------|
A|---------------- 5--------------| 3-------------- 3------------ 5|
E| 0------------------------------|--------------------------------|
http://classicalguitartablature.blogspot.com/
E|--------------------------------|--------------------------------|
B|------------------------ 3 3 3--| 3------------------------ 0 3--|
G|-------- 5-------------- 5 5 5--| 0-- 0-- 0------ 0------ 0------|
D|---- 5------ 5------ 5----------|------------ 0------ 0----------|
A|---------------- 5--------------|--------------------------------|
E|--------------------------------| 3------------------------------|
http://classicalguitartablature.blogspot.com/
E| 0---------------------- 0 0 0 0|---------------------------- 0--|
B| 3---------- 3------------------| 1---------------- 1------ 1----|
G|-------- 0---- 0----------------|---- 0-- 0------ 0------ 0------|
D|---- 4-------------- 4----------|------------ 2------------------|
A|--------------------------------| 3------------------------------|
E| 0------------------------------|--------------------------------|
http://classicalguitartablature.blogspot.com/
E|--------------------------------| 2------------------------------|
B| 7---------- 7-------- 7-- 7 7--| 5------------------------ 4 7--|
G| 5------ 5------------ 7-- 7 7--| 4-- 4-- 4------------ 4--------|
D|---- 5-------------- 7----------|---- 4-- 4-- 4------ 4----------|
A| 5------------------------------| 2-------------- 6--------------|
E|---------------- 8--------------|--------------------------------|
http://classicalguitartablature.blogspot.com/
E| 3---------------------- 0 0 0--| 0---- 0------------------------|
B|------------ 0---------- 0 0 0--| 1-- 3 3-------------- 1-- 3 1--|
G|-------- 0-------------- 0 0 0--| 0-- 0 0---- 0------------------|
D|---- 0-------- 0---- 0----------|---- 2---- 2-- 2---- 2----------|
A|---------------- 5--------------| 3-------------- 3------------ 5|
E| 0------------------------------|--------------------------------|
http://classicalguitartablature.blogspot.com/
E|------------------------ 5------| 7-- 5---- 5 3-- 5-- 3------ 3 3|
B|------------ 7-- 8------ 8------| 3-- 3-- 3---------- 3---- 3----|
G| 7------ 7------ 7--------------| 4-- 4 4-------- 4------ 4------|
D|---- 7---- 7---- 7-- 7------ 7--|--------------------------------|
A|---------------- 5--------------|--------------------------------|
E|--------------------------------| 3-------------- 3--------------|
http://classicalguitartablature.blogspot.com/
E|---- 2---- 2-- 0 2-- 0------ 0--| 8-- 7 7-------- 5--------------|
B|---- 0---- 0-- 0 0-- 0---- 0----| 8-- 8-- 8--10-- 5-- 8-- 8-- 7--|
G| 0-- 0-- 0------ 0------ 0------| 9-- 9-- 9-- 9-- 5-- 5-- 5-- 5--|
D|--------------------------------|------------------------ 5-- 5--|
A|--------------------------------|--------------------------------|
E| 0-------------- 0--------------| 8------------ 5----------------|
http://classicalguitartablature.blogspot.com/
E|------------------------ 5------| 7-- 5---- 5 3-- 5-- 3------ 3 3|
B| 7---------- 7-- 8---- 8---- 8--| 3-- 3-- 3---------- 3---- 3----|
G| 5------ 5-- 5-- 5-- 5----------| 4-- 4 4-------- 4------ 4------|
D| 5-- 5-------- 5 5 5------------|--------------------------------|
A| 5-------------- 5--------------|--------------------------------|
E|--------------------------------| 3-------------- 3--------------|
http://classicalguitartablature.blogspot.com/
E|---- 2---- 2-- 0 2-- 0------ 0--| 8-- 7 7-------- 5--------------|
B|---- 0---- 0-- 0 0-- 0---- 0----| 8-- 8-- 8--10-- 5-- 8-- 8-- 7--|
G| 0-- 0-- 0------ 0------ 0------| 9-- 9-- 9-- 9-- 5-- 5-- 5-- 5--|
D|--------------------------------|------------------------ 5-- 5--|
A|--------------------------------|--------------------------------|
E| 0-------------- 0--------------| 8------------ 5----------------|
http://classicalguitartablature.blogspot.com/
E|---------------------------- 5--| 5---------- 3------------------|
B| 7---------- 7 7 7-- 7-- 8------|--------------------------------|
G| 5------ 5------ 5-- 5-- 5------| 0------ 0----------------------|
D| 5-- 5---------- 5-- 5-- 5------|---- 0-------------- 0----------|
A| 5-------------- 5--------------|--------------------------------|
E|--------------------------------| 3-------------- 3------ 3 2 1--|
http://classicalguitartablature.blogspot.com/
E|---------------- 5---- 6--------|-------- 3 3---- 5---- 7--------|
B|-------- 8-- 8-- 8--------------|-------- 3-- 3-- 3--------------|
G|---- 7-------- 7---- 7------ 7--|------ 4 4-- 4 4---- 4----------|
D|--------------------------------|---- 5-------------------- 5----|
A| 6------------ 6----------------|--------------------------------|
E|--------------------------------| 3------------ 3----------------|
http://classicalguitartablature.blogspot.com/
E|-------------- 5------ 6--------|------------------------ 8----10|
B|---- 8 8-- 8-- 8------ 8-- 8----|10----------10--11------11---- 6|
G|-- 7---------- 7-- 7-- 7--------| 8---- 8-------- 8---------- 8--|
D|--------------------------------|----10----------10--10----------|
A| 6------------ 6----------------| 8------------ 8----------------|
E|--------------------------------|--------------------------------|
http://classicalguitartablature.blogspot.com/
E|-- 8------ 8 6 8---- 6---- 6-- 6|-- 5------ 5 3-- 5-- 3------ 3--|
B|---- 6---- 6 6 6---- 6----------| 3 3------ 3 3-- 3-- 3---- 3----|
G| 7-- 7 7-- 7 7-- 7-- 7-- 7------| 3---- 3-- 3 3-- 3---- 3--------|
D|--------------------------------|--------------------------------|
A|--------------------------------|--------------------------------|
E| 6-------------- 6--------------| 3-------------- 3------------11|
http://classicalguitartablature.blogspot.com/
E|11--10--10-- 8-- 8--------------|---------------------- 8------10|
B| 8-- 8-- 8------ 8--11--11--10--|10------10------11----11--11-- 6|
G| 8-- 8-- 8-- 8-- 8-- 8-- 8-- 8--| 8---- 8---- 8-- 8---- 8--------|
D|-------------------- 8-- 8-- 8--| 8-- 8---------- 8-- 8----------|
A|------------------------------ 8|---------------- 8--------------|
E|-------------- 8----------------|--------------------------------|
http://classicalguitartablature.blogspot.com/
E|-- 8------ 8 6 8---- 6---- 6-- 6|-- 5------ 5 3-- 5-- 3------ 3--|
B|---- 6---- 6 6 6---- 6----------| 3 3------ 3 3-- 3-- 3---- 3----|
G| 7-- 7 7-- 7 7-- 7-- 7-- 7------| 3---- 3-- 3 3-- 3---- 3--------|
D|--------------------------------|--------------------------------|
A|--------------------------------|--------------------------------|
E| 6-------------- 6--------------| 3-------------- 3------------11|
http://classicalguitartablature.blogspot.com/
E|11--10--10-- 8-- 8--------------|-------------------------- 8----|
B| 8-- 8-- 8------ 8--11--11--10--|10--------1010--10--10--11------|
G| 8-- 8-- 8-- 8-- 8-- 8-- 8-- 8--| 8---- 8-------- 8-- 8-- 8------|
D|-------------------- 8-- 8-- 8--|10--10----------10--10--10------|
A|------------------------------ 8|---------------- 8--------------|
E|-------------- 8----------------|--------------------------------|
http://classicalguitartablature.blogspot.com/
E| 8---------- 6------ 6----------|------------------------ 8------|
B| 6------ 6-- 6------ 6----------|------------ 3------ 3-- 6------|
G| 7-- 7------ 7------ 7------ 5--|------ 3------------ 3------ 7--|
D|---------------------------- 3--|-- 3---------------- 3----------|
A|--------------------------------|------------------------ 8------|
E| 6-------------- 6------ 5------| 3-------------- 3--------------|
http://classicalguitartablature.blogspot.com/
E| 8---------- 6-------------- 6--|--------------------------------|
B| 8------ 8-------------- 8------|--------------101010----10--11--|
G| 7-- 7-------------- 7----------|---------- 8------ 8---- 8-- 8--|
D|--------------------------------|---- 8------------------ 8-- 8--|
A| 6-------------- 6--------------| 8---------------- 8------------|
E|--------------------------------|--------------------------------|
http://classicalguitartablature.blogspot.com/
E|-- 8------------------ 8--------|-- 6----------------------------|
B|------------------------------ 6|------------------ 6----------11|
G|---------------------- 7-- 7----|------------ 7-------- 7------10|
D|--------------------------------|------------------------------ 8|
A|--------------------------------|----------------------------10--|
E|-------------------- 6----------|-------- 6----------------------|
http://classicalguitartablature.blogspot.com/
E|--------------------------------|--------------------------------|
B|--10--10-- 8-- 8---- 6---- 6-- 4|------ 3------------------------|
G|--10--10-- 7-- 7---- 3---- 3-- 3|---- 3--------------------------|
D|--10--10-- 8-- 8---- 3---- 3-- 5|---- 3--------------------------|
A| 8-------- 6--------------------|--------------------------------|
E|-------------------- 6-------- 6|-- 6----------------------------|
http://classicalguitartablature.blogspot.com/
E|--------------------------------|--------------------------------|
B|--------------------------------|--------------------------------|
G|--------------------------------|--------------------------------|
D|--------------------------------|--------------------------------|
A|--------------------------------|--------------------------------|
E|--------------------------------|--------------------------------|
http://classicalguitartablature.blogspot.com/

0 ความคิดเห็น:

แสดงความคิดเห็น