To celebrate the anniversary, I am giving you (finally...) : iPhone LickByNeck !!!!!!

You Make Me Feel Brand New (BASIC)

The Stylistics' tune fingerstyle chord melody guitar BASIC arrangement played in the key of G.

You Make Me Feel Brand New-The Stylistics-BASIC ARRANGEMENT played in the key of G.
http://classicalguitartablature.blogspot.com/
E|--------------------------------|---------------------------- 4--|
B|------ 0---------------- 0------|------ 0---------------- 0------|
G|-------- 1-------------- 1------|-------- 1------------------ 4--|
D|-- 4---------------- 4------ 4--|---- 4-------------- 4----------|
A|--------------------------------|--------------------------------|
E| 0---------- 0-- 0--------------| 0---------- 0-- 0--------------|
http://classicalguitartablature.blogspot.com/
E|--------------------------------|-------------- 7------------ 5 4|
B|---------------------- 5--------|------ 5-- 5---------- 5--------|
G|-------- 4---------------- 4-- 5|---- 5-------- 5-- 5------ 5----|
D|---- 6-- 6---------- 6-------- 7|---- 7---- 7--------------------|
A|--------------------------------|--------------------------------|
E| 0---------- 0-- 0--------------| 0-------- 0-- 0------------ 0--|
http://classicalguitartablature.blogspot.com/
http://classicalguitartablature.blogspot.com/
E|--------------------------------|-------------- 7---------- 5-- 4|
B|------ 5---------------- 5------|-------- 5 5------------------ 5|
G| 4------ 4------------------ 4--| 5-- 5-------- 5------ 5------ 4|
D|---- 6-------------- 6----------| 7-- 7---- 7------ 7------------|
A|--------------------------------|--------------------------------|
E| 0---------- 0-- 0---------- 0--| 0---------- 0 0------------ 0--|
http://classicalguitartablature.blogspot.com/
E|---------------------- 4-- 2----|------------------------ 4-- 2--|
B|------ 5------------------ 4----|------ 4-------------------- 5--|
G|------ 4-------------- 4-- 4----|-------- 4------------------ 4--|
D|-- 6-------------- 6------------|-- 2---------------- 2----------|
A|------------------------------ 4|------------ 4-- 4--------------|
E| 0---------- 0-- 0---- 0--------|--------------------------------|
http://classicalguitartablature.blogspot.com/
E|---------------------------- 2--|--------------------------------|
B|-------- 5-------------- 2-- 2--|------ 2-------------- 2--------|
G|-------- 4------------------ 2--|------ 2-------------- 2--------|
D|---- 2-- 2---------- 2-- 2------|---- 2 2------------ 2 2------ 4|
A|------------------------------ 2|------------ 2-- 2---------- 2--|
E| 2---------- 2-- 2--------------|--------------------------------|
http://classicalguitartablature.blogspot.com/
E|--------------------------------|--------------------------------|
B| 4------ 4-------------------- 0|--------------------------------|
G| 4------ 4------ 0---- 2------ 0|-------- 0-------------- 0------|
D|-- 4---------------- 2---- 4----|-- 0---------------- 0------ 0--|
A| 2---------- 2-- 3---- 5--------|--------------------------------|
E|------------------------------ 3|------------ 3-- 3---------- 3--|
http://classicalguitartablature.blogspot.com/
E|--------------------------------|--------------------------------|
B|---------------- 3---------- 1--| 0------------------------------|
G|-------- 0-- 0-- 0------ 0---- 0|-------- 0-------------- 0------|
D| 1-- 1-------------- 1----------|---- 0-------------- 0------ 0--|
A|--------------------------------|--------------------------------|
E| 3---------- 3-- 3---------- 3--| 3---------- 3-- 3---------- 3--|
http://classicalguitartablature.blogspot.com/
E|--------------------------------|--------------------------------|
B|---------------- 3---------- 1--| 0------------------------------|
G|-------- 0-- 0-- 0------ 0---- 0|-------- 0-------------- 0------|
D| 1-- 1-------------- 1----------|---- 0-------------- 0------ 0--|
A|--------------------------------|--------------------------------|
E| 3---------- 3-- 3---------- 3--| 3---------- 3-- 3---------- 3--|
http://classicalguitartablature.blogspot.com/
E|--------------------------------|--------------------------------|
B|---------------- 3---------- 1--| 0------------------------------|
G|-------- 0-- 0-- 0------ 0---- 0| 0------ 0-------------- 0------|
D| 1-- 1-------------- 1----------| 0-- 0-- 0---------- 0----------|
A|--------------------------------|--------------------------------|
E| 3---------- 3-- 3---------- 3--| 3---------- 3-- 3---------- 3--|
http://classicalguitartablature.blogspot.com/
E|--------------------------------|--------------------------------|
B|------------------ 3-- 3-- 3----|--------------------------------|
G|-------- 0-------- 0-- 0-- 2----|-------- 2-------------- 2------|
D|---- 0---------- 0 0-- 0-- 4----|---- 4-------------- 4----------|
A|---------------------- 0-- 2----| 2---------- 2-- 2---------- 2--|
E| 3---------- 3-- 3-- 3----------|--------------------------------|
http://classicalguitartablature.blogspot.com/
E|---- 0-- 2-- 5---- 3------------|--------------------------------|
B| 3-- 3------ 0------ 0-- 0-- 3--|---------------------- 3------ 3|
G| 0-- 0-- 0-- 0------ 0------ 2--|-------- 2---------------- 4-- 0|
D| 0-------------------------- 4--|---- 4-- 4-------- 4-------- 4--|
A|--------------------------------| 2---------- 2-- 2---------- 2--|
E| 0---------- 0-- 0--------------|------------------------------ 0|
http://classicalguitartablature.blogspot.com/
E|---- 0 2-- 5------ 3-- 5-- 8-- 7|------------------------------ 7|
B|--------------------------------|------ 5-------------- 5--------|
G|------------ 0---- 0---------- 5|------ 5-------------- 5------ 9|
D|--------------------------------|-- 5-------------- 5------------|
A|--------------------------------| 0---------- 0-- 0-------- 0----|
E|------------ 0-- 0--------------|------------------------------ 8|
http://classicalguitartablature.blogspot.com/
E|-- 8-- 7-------------- 7-- 8-- 7|------------------ 7-------- 5--|
B| 8---- 8--10-- 8------ 5-- 5----|--10-- 8------ 8-- 5------------|
G|------ 9-- 7-- 7------ 5-- 5-- 5|---- 7 7------ 9-- 5------------|
D|---------- 9-- 9----------------|---- 9 9------ 9----------------|
A|---------------------- 0--------|------------------------ 5------|
E|---------- 7--------------------|---- 7-------- 8----------------|
http://classicalguitartablature.blogspot.com/
E|---------------------- 5------ 7|--------------------------------|
B|-------------- 8------ 5------ 8|--------------------------------|
G|-------------- 5------ 5------ 9|-------- 9---------- 9----------|
D|-------------- 5----------------|---- 9-- 9---------- 9------ 9--|
A|---------------------- 5--------|--------------------------------|
E|---------------- 5------------ 8|------------ 8-- 8------ 7------|
http://classicalguitartablature.blogspot.com/
E| 7---- 8--10-- 7----------------|--------------------------------|
B| 8---- 8---- 8-- 8------10------|10------------------------ 7----|
G| 9---- 9---- 9-- 9-- 9---- 9----| 7------ 7-------------- 7------|
D|--------------------------------| 7 7-------------- 7-------- 7--|
A| 0---------- 0-- 0------ 0------|--------------------------------|
E|--------------------------------| 7---------- 7-- 7---------- 7--|
http://classicalguitartablature.blogspot.com/
E|---------------------- 5------ 7|--------------------------------|
B|10---- 7------ 8------ 5------ 8|--------------------------------|
G| 7---- 7------ 5------ 5------ 9|-------- 9---------- 9----------|
D| 9 9-- 9---------- 5-------- 5--|---- 9-- 9---------- 9------ 9--|
A|---------------- 0---- 5--------|--------------------------------|
E| 0-------- 0------------------ 8|------------ 8-- 8------ 7------|
http://classicalguitartablature.blogspot.com/
E| 7---- 8--10-- 7----------------|--------------------------------|
B| 8---- 8---- 8-- 8------10------|10------------------------ 7----|
G| 9---- 9---- 9-- 9-- 9---- 9----| 7------ 7-------------- 7------|
D|--------------------------------| 7 7-------------- 7-------- 7--|
A| 0---------- 0-- 0------ 0------|--------------------------------|
E|--------------------------------| 7---------- 7-- 7---------- 7--|
http://classicalguitartablature.blogspot.com/
E|---------------------- 5------ 7|--------------------------------|
B|10---- 7------ 8------ 5--------| 8------ 8---------- 8 8------ 5|
G| 7---- 7------ 5------ 5--------| 9---- 9------------ 9 9------ 5|
D| 9 9-- 9---------- 5-------- 5--|---- 9 9------------ 9-- 9---- 5|
A|---------------- 0---- 5--------|--------------------------------|
E| 0-------- 0--------------------| 8---------- 8-- 8------ 8 7-- 5|
http://classicalguitartablature.blogspot.com/
E|------ 7-- 5--------------------|--------------------------------|
B|------ 5-- 5-- 8---------- 5-- 3|---------------------------- 3--|
G|------ 5-- 5-- 5-------- 5---- 0|-------- 0-------------- 0-- 0 8|
D|-- 5---------- 5-- 5---------- 0|-- 0---------------- 0----------|
A|------ 5------ 5----------------|------------------------------10|
E|--------------------------------| 3-------- 3-- 3------------ 3--|
http://classicalguitartablature.blogspot.com/
E|--------------10------------ 8--| 7------------------------------|
B|------ 8-- 8------------ 8------| 5------ 7-- 5------------------|
G|-- 8-------------- 8------------| 4------ 4-- 4------ 6-- 4------|
D|--------------------------------|---- 6-- 6-- 6------ 6-- 6------|
A|----------10--10------------10--|--------------------------------|
E|--------------------------------| 0-------------- 0---------- 0--|
http://classicalguitartablature.blogspot.com/
E|--------------------------------|--------------------------------|
B|--------------------------------|--------------------------------|
G|--------------------------------|--------------------------------|
D| 4-- 2--------------------------|--------------------------------|
A|-------------- 4-- 2------------|--------------------------------|
E|-------- 0----------------------|--------------------------------|
http://classicalguitartablature.blogspot.com/

0 ความคิดเห็น:

แสดงความคิดเห็น