To celebrate the anniversary, I am giving you (finally...) : iPhone LickByNeck !!!!!!

You To Me Are Everything (BASIC)

The Real Thing's tune fingerstyle chord melody guitar BASIC arrangement played in the key of C.

You To Me Are Everything-The Real Thing-BASIC ARRANGEMENT played in the key of C.
http://classicalguitartablature.blogspot.com/
E|--------------------------------| 0------------ 0----------------|
B| 1------------------------ 1-- 1| 1------ 3 1 3---------- 3------|
G| 2------------------ 0-- 2-- 2--|-------------------- 0------ 0--|
D| 3------------------------------|---- 2------------ 2------------|
A|--------------------------------| 3---------- 3 3----------------|
E| 3------------------------------|--------------------------------|
http://classicalguitartablature.blogspot.com/
E| 0------------ 0----------------|--------------------------------|
B| 1------ 3 1 3---------- 3------| 5------ 3-- 3 5-------- 5----10|
G| 0-------- 0 0------ 0------ 0--| 5-------- 5-------- 5--------10|
D|---- 2------ 2---- 2------------|---- 3------------ 3----------10|
A| 0---------- 0 0----------------| 5---------- 5 5--------------10|
E|--------------------------------|--------------------------------|
http://classicalguitartablature.blogspot.com/
http://classicalguitartablature.blogspot.com/
E|--------------------------------| 0------------------------------|
B|--------------10----------------| 1-- 3-- 3-- 1 1---- 0-- 1-- 3--|
G|--------------10----------------| 0-- 0-- 0-- 0 0---- 0-- 0-- 0--|
D|--------------10----------------|---- 2-- 2-- 2 2---- 2-- 2-- 2--|
A|--10----------10--10------------| 3---------- 3 3----------------|
E|----12--10--12------12--10--12--|--------------------------------|
http://classicalguitartablature.blogspot.com/
E| 0-- 3 0------------------------| 0------------------------------|
B| 1-- 1 1---------------- 1------| 1-- 3-- 3-- 1 1---- 0-- 1-- 3--|
G| 0-- 0 0------------ 0------ 0--| 0-- 0-- 0-- 0 0---- 0-- 0------|
D|------------------ 2------------|---- 2-- 2-- 2 2---- 2-- 2------|
A| 3-------- 3 3------------------| 0---------- 0 0----------------|
E|--------------------------------|--------------------------------|
http://classicalguitartablature.blogspot.com/
E| 0-- 3 0------------------------|--------------------------------|
B| 1-- 1 1---------------- 1------| 6-- 5-- 5------------------ 5--|
G| 0-- 0 0------------ 0------ 0--| 5-------- 7-- 7---- 5-- 7 5----|
D|------------------ 2------------| 7---------- 7 7---- 7-- 7------|
A| 0---------- 0 0----------------| 5---------- 5 5----------------|
E|--------------------------------|--------------------------------|
http://classicalguitartablature.blogspot.com/
E| 0------------------------------|--------------------------------|
B| 1-- 3-- 3-- 1 1------ 1--------| 6-- 5 5-------------------- 5--|
G| 0-------- 0-- 0---- 0------ 0--| 5-------- 7 7------ 5-- 7------|
D|---------- 2-- 2-- 2------------| 7-------- 7 7------ 7-- 7------|
A| 0---------- 0 0----------------| 5-------- 5-- 5----------------|
E|--------------------------------|--------------------------------|
http://classicalguitartablature.blogspot.com/
E|---- 0------ 0-------------- 0--| 0------------------------------|
B| 3------ 3---- 3-------- 3------| 1-- 3-- 3-- 1 1---- 0-- 1-- 3--|
G| 0------------------ 0----------| 0-- 0-- 0-- 0 0---- 0-- 0-- 0--|
D| 0---------------- 0------------|---- 2-- 2-- 2 2---- 2-- 2-- 2--|
A|--------------------------------| 3---------- 3 3----------------|
E| 3---------- 3 3----------------|--------------------------------|
http://classicalguitartablature.blogspot.com/
E| 0-- 3 0------------------------| 0------------------------------|
B| 1-- 1 1---------------- 1------| 1-- 3-- 3-- 1 1---- 0-- 1-- 3--|
G| 0-- 0 0------------ 0------ 0--| 0-- 0-- 0-- 0 0---- 0-- 0------|
D|------------------ 2------------|---- 2-- 2-- 2 2---- 2-- 2------|
A| 3-------- 3 3------------------| 0---------- 0 0----------------|
E|--------------------------------|--------------------------------|
http://classicalguitartablature.blogspot.com/
E| 0-- 3 0------------------------|--------------------------------|
B| 1-- 1 1---------------- 1------| 6-- 5-- 5------------------ 5--|
G| 0-- 0 0------------ 0------ 0--| 5-------- 7-- 7---- 5-- 7 5----|
D|------------------ 2------------| 7---------- 7 7---- 7-- 7------|
A| 0---------- 0 0----------------| 5---------- 5 5----------------|
E|--------------------------------|--------------------------------|
http://classicalguitartablature.blogspot.com/
E| 0------------------------------|--------------------------------|
B| 1-- 3-- 3-- 1 1------ 1--------| 6-- 5 5-------------------- 5--|
G| 0-------- 0-- 0---- 0------ 0--| 5-------- 7 7------ 5-- 7------|
D|---------- 2-- 2-- 2------------| 7-------- 7 7------ 7-- 7------|
A| 0---------- 0 0----------------| 5-------- 5-- 5----------------|
E|--------------------------------|--------------------------------|
http://classicalguitartablature.blogspot.com/
E|---- 0------ 0-------------- 0--| 0-- 0-- 0 0 0---- 0-- 0-- 0----|
B| 3------ 3---- 3-------- 3------| 1-- 1-- 1 1 1---- 1-- 1-- 1-- 3|
G| 0------------------ 0----------| 0-- 0-- 0 0-- 0---- 0 0-- 0----|
D| 0---------------- 0------------|--------------------------------|
A|--------------------------------| 3---------- 3 3----------------|
E| 3---------- 3 3----------------|--------------------------------|
http://classicalguitartablature.blogspot.com/
E|--------------------------------|--------------------------------|
B|---- 3 3-- 3 3---- 3-- 3-- 5----| 3---------------------- 3-- 5--|
G|---------- 4 4---- 4------------|-- 5-------------- 5------------|
D|---------- 5 5------------------|-------- 3------ 3--------------|
A| 3-------- 3 3---------------- 5|---------- 5 5------------------|
E|--------------------------------|--------------------------------|
http://classicalguitartablature.blogspot.com/
E| 0------------------------------| 0-- 0-- 0 0 0---- 0-- 0-- 0----|
B| 3-- 3------------------ 3------| 1-- 1-- 1 1 1---- 1-- 1-- 1-- 3|
G| 2------------------ 2------ 0--| 0-- 0-- 0 0-- 0---- 0 0-- 0----|
D|-------- 3-------- 3------------|--------------------------------|
A|--------------------------------| 3---------- 3 3----------------|
E| 3---------- 3 3----------------|--------------------------------|
http://classicalguitartablature.blogspot.com/
E|--------------------------------|--------------------------------|
B|---- 3 3-- 3 3---- 3-- 3-- 5----| 3---------------------- 3-- 5--|
G|---------- 4 4---- 4------------|-- 5-------------- 5------------|
D|---------- 5 5------------------|-------- 3------ 3--------------|
A| 3-------- 3 3---------------- 5|---------- 5 5------------------|
E|--------------------------------|--------------------------------|
http://classicalguitartablature.blogspot.com/
E| 0------------------------------|-------------- 3----------------|
B| 3-- 3------------------ 3------| 6-- 6-- 6 6-- 6---- 6-- 6-- 6--|
G| 2------------------ 2------ 0--| 5-- 5-- 5 5-- 5---- 5-- 5-- 5--|
D|-------- 3-------- 3------------| 3-- 3-- 3 3-------- 3-- 3-- 3--|
A|--------------------------------| 5---------- 5 5----------------|
E| 3---------- 3 3----------------|--------------------------------|
http://classicalguitartablature.blogspot.com/
E| 0-- 0-- 0-- 0-------- 0--------|------------ 3------------------|
B| 1-- 1-- 1 3 1------------------| 6-- 6-- 6 6-------- 6 6---- 6--|
G| 2-- 2-- 2 2 2------ 2------ 0--| 5-- 5-- 5 5-------- 5 5---- 5--|
D|---------- 3---- 3--------------| 3-- 3-- 3 3-------- 3-- 3-- 3--|
A|--------------------------------| 5---------- 5 5----------------|
E| 3-------- 3-- 3----------------|--------------------------------|
http://classicalguitartablature.blogspot.com/
E|--------------------------------| 0-- 0-- 0-- 1 3---- 1-- 0-- 0--|
B| 5-- 5 5-- 6 5---------- 5------| 1-- 1-- 1-- 1------ 1-- 1------|
G| 5-- 5 5-- 5 5---- 5-------- 5--| 0-- 0-- 0---- 0---- 0-- 0------|
D| 3-- 3-- 3 3 3-- 3--------------|--------------------------------|
A|--------------------------------| 3-------------- 0--------------|
E| 3---------- 3------------------|--------------------------------|
http://classicalguitartablature.blogspot.com/
E|--------------------------------|-------------- 0----------------|
B| 3-- 3-- 3-- 6 6---- 5-- 3-- 5--| 3-- 1 3 1 3------------ 3------|
G| 5-- 5-- 5 5-- 5---- 5-- 5------| 0---------- 0------ 0------ 0--|
D| 3-- 3-- 3---- 3---- 3-- 3------| 2---------- 2---- 2------------|
A| 5------------------------------| 3---------- 3 3----------------|
E|---------------- 3--------------|--------------------------------|
http://classicalguitartablature.blogspot.com/
E| 0------------ 0----------------|--------------------------------|
B| 1------ 3 1 3---------- 3------| 5------ 3-- 3 5-------- 5----10|
G| 0-------- 0 0------ 0------ 0--| 5-------- 5-------- 5--------10|
D|---- 2------ 2---- 2------------|---- 3------------ 3----------10|
A| 0---------- 0 0----------------| 5---------- 5 5--------------10|
E|--------------------------------|--------------------------------|
http://classicalguitartablature.blogspot.com/
E|--------------------------------|--------------------------------|
B|--------------10----------------|-- 3----------------------------|
G|--------------10----------------| 4------------------------------|
D|--------------10----------------| 2------------------------------|
A|--10----------10--10------------| 3------------------------------|
E|----12--10--12------12--10--12--|--------------------------------|
http://classicalguitartablature.blogspot.com/

0 ความคิดเห็น:

แสดงความคิดเห็น