To celebrate the anniversary, I am giving you (finally...) : iPhone LickByNeck !!!!!!

You've Lost That Loving Feeling (BASIC)

The Righteous Brothers' tune fingerstyle chord melody guitar BASIC arrangement played in the key of G.

You've Lost That Loving Feeling-The Righteous Brothers-BASIC ARRANGEMENT played in the key of G.
http://classicalguitartablature.blogspot.com/
E|--------------------------------|--------------------------------|
B|---------------------------- 1--| 0------------------------ 1-- 0|
G|---------------------- 0--------|---- 0---------------- 0--------|
D|-------------------- 0----------|------------ 3------ 3----------|
A|--------------------------------|--------------------------------|
E| 3------------------------------| 3-------------- 3--------------|
http://classicalguitartablature.blogspot.com/
E|--------------------------------|--------------------------------|
B|-------------------------- 1-- 3|---- 0--------------------------|
G|---- 0------------------ 0---- 0|------------ 0---------- 0------|
D|------------ 3------ 3-------- 0|-------------------- 0------ 0--|
A|--------------------------------|--------------------------------|
E| 3-------------- 3------------ 3|---------------- 3--------------|
http://classicalguitartablature.blogspot.com/
http://classicalguitartablature.blogspot.com/
E|-------------------------- 3-- 1|---- 0-------------------- 3-- 1|
B|------------------------------ 1|---- 0------ 3------------------|
G|-------- 0------------ 0--------| 2-- 2---------------- 0--------|
D|---- 0------ 0------ 0----------|-------------------- 3----------|
A|--------------------------------|--------------------------------|
E| 3-------------- 3--------------| 3-------------- 3--------------|
http://classicalguitartablature.blogspot.com/
E|---- 0--------------------------|--------------------------------|
B| 1-- 0------ 3---- 1------ 3----|-- 1 0--------------------------|
G| 2-- 2---- 2--------------------|------ 0---------------- 0------|
D|---------- 3------------ 3------|---------- 0-------- 0------ 0--|
A|--------------------------------|--------------------------------|
E| 3-------------- 3--------------| 3-------------- 3--------------|
http://classicalguitartablature.blogspot.com/
E|---------------------- 0-- 2----| 3---- 2-- 3-- 2----------------|
B|------------------ 3------------| 1------------ 1-- 3------------|
G|------ 0------------------------| 0------------ 0---------- 0----|
D|---- 0------ 0------------------|---- 2---------------- 2--------|
A|--------------------------------| 0-------------- 0--------------|
E| 3------------ 3----------------|--------------------------------|
http://classicalguitartablature.blogspot.com/
E|--------------------------------| 7-- 5------------------------ 7|
B|------------------------ 3------| 5-- 5------ 5---------- 5-- 3--|
G|-------- 2------------------ 2--| 4-- 4-- 4---------- 4----------|
D|---- 4------ 4------ 4----------|--------------------------------|
A| 2-------------- 2--------------| 3-------------- 3--------------|
E|--------------------------------|--------------------------------|
http://classicalguitartablature.blogspot.com/
E|---- 5-------- 7------ 5--------|-------- 3-- 3-------------- 3--|
B| 5-- 5---- 8-- 5------ 5-- 8----|-------- 0-- 0------------------|
G| 5---- 5------ 5------ 5-- 5----|------------------------ 0------|
D|-------------------------- 5----|---- 0-------------- 0----------|
A| 5------------ 5----------------|--------------------------------|
E|--------------------------------| 3-------------- 3--------------|
http://classicalguitartablature.blogspot.com/
E| 5---------- 5------------------|------------ 2-- 2---- 0-- 2----|
B| 5---- 5---------- 5------------|------------ 3-- 3-- 3------ 3--|
G|------ 5---------- 5-------- 5--|-------- 2------ 2---- 2-- 2----|
D|---- 5------------------ 5------|---- 4--------------------------|
A|--------------------------------| 5-------------- 5--------------|
E| 3------------------------------|--------------------------------|
http://classicalguitartablature.blogspot.com/
E| 3---------- 3------------------|------------ 3-- 3---- 2-- 3----|
B| 3---- 3---- 3------ 3----------|-------- 3-- 3-- 3--------------|
G| 0------ 0---------- 0------ 0--|---- 0-------- 0----------------|
D|---- 0------------------ 0------|--------------------------------|
A|--------------------------------|--------------------------------|
E| 3-------------- 3--------------| 3------------ 3----------------|
http://classicalguitartablature.blogspot.com/
E| 8---- 7------------------------| 1---------- 1-- 0---------- 0--|
B| 8----------10---- 8----10-- 8--| 1---------- 1-- 0------------ 3|
G| 9-- 9------ 9---- 9---- 9-- 9--| 2------ 2-------------- 2------|
D|--------------------------------|---- 3-------------- 3----------|
A|10--------------10--------------|--------------------------------|
E|--------------------------------| 3---------------- 3------------|
http://classicalguitartablature.blogspot.com/
E|--------------------------------| 3---- 1------------------------|
B|---------- 3---- 1-- 3---- 1----|------------ 3------ 1----------|
G| 2---- 2-------- 2--------------|---------------------------- 3--|
D|---- 3-------- 3----------------|--------------------------------|
A|--------------------------------|--------------------------------|
E| 3------------ 3----------------| 3------------------------------|
http://classicalguitartablature.blogspot.com/
E|--------------------------------|--------------------------------|
B|--------------------------------|-------------------- 1----------|
G|---- 0--------------------------|---- 0-------------- 0----------|
D|------------ 3------ 0----------|---- 0-------------- 2----------|
A|--------------------------------|---------------- 3---------- 3--|
E|--------------------------------| 3---------- 3------------------|
http://classicalguitartablature.blogspot.com/
E|--------------------------------|------ 3-- 3---- 2-- 2----------|
B|---- 3------------ 1------------|-------- 0 0---- 1-- 1----------|
G|---- 0------------ 0------ 2----| 0-- 0---------- 0------ 0------|
D|---- 4------------ 2------ 2----|--------------------------------|
A| 5-------- 5-- 3------ 0--------|---------------- 3---------- 3--|
E|--------------------------------| 3---------- 3------------------|
http://classicalguitartablature.blogspot.com/
E|---- 0-- 0-- 0-- 2-- 0-- 0------|--------------------------------|
B|---- 3-- 3-- 3-- 1---------- 3--| 3 1 0-------------- 1----------|
G|---- 2-- 2-- 2-- 0--------------| 0------------------ 0----------|
D|--------------------------------|-------------------- 2----------|
A| 5---------- 5-- 3------ 0------|---------------- 3---------- 3--|
E|--------------------------------| 3---------- 3------------------|
http://classicalguitartablature.blogspot.com/
E|--------------------------------|--------------------------------|
B|---- 3------------ 1------------|---- 0-- 0-- 0-- 1-- 1----------|
G|---- 0-------------- 0------ 2--|---- 0-- 0-- 0-- 0--------------|
D|---- 4------------ 2------------|---- 0-- 0------ 2--------------|
A| 5---------- 5 3-------- 0------|---------------- 3---------- 3--|
E|--------------------------------| 3---------- 3------------------|
http://classicalguitartablature.blogspot.com/
E|--------------------------------|------------ 0------------------|
B| 3-- 3------ 3------------------| 0-- 3---------- 0--------------|
G| 2-- 2---------- 0-- 0-- 2 0----|---------------- 0 2 0----------|
D| 4-- 4--------------------------| 0------ 0------ 2------ 2------|
A| 5---------- 5-- 3---------- 3--|---------------- 3---------- 3--|
E|--------------------------------| 3---------- 3------------------|
http://classicalguitartablature.blogspot.com/
E|--------------------------------|--------------------------------|
B|---- 3------------ 1------------|---- 0 0-- 0---- 1---------- 1--|
G|---- 2-------------- 0---- 2----|---- 0-- 0-- 0-- 0------ 0-- 0--|
D|---- 4-------------- 2------ 2--| 0-- 0 0---- 0-- 2-- 2----------|
A| 5---------- 5-- 3------ 0------|---------------- 3---------- 3--|
E|--------------------------------| 3---------- 3------------------|
http://classicalguitartablature.blogspot.com/
E|--------------------------------|--------------------------------|
B|--------------------------------| 0------------------ 1----------|
G| 2------ 2-- 2-- 2-- 2-- 2-- 2--| 0 2 0-------------- 0----------|
D|---- 4------ 4-- 4-- 4-- 4-- 4--| 0 2 0-------------- 2----------|
A| 5---------- 5-- 3---------- 3--|---------------- 3---------- 3--|
E|--------------------------------| 3---------- 3------------------|
http://classicalguitartablature.blogspot.com/
E|--------------------------------|--------------------------------|
B|---- 3-------------- 1----------| 0-------------- 1------------ 3|
G|---- 0-------------- 0---- 0----| 0------ 0------ 0------ 0------|
D|---- 4-------------- 2----------|---- 0-------- 2---- 2----------|
A| 5---------- 5 3-------- 0------|---------------- 3---------- 3--|
E|--------------------------------| 3---------- 3------------------|
http://classicalguitartablature.blogspot.com/
E|--------------------------------|--------------------------------|
B|-------------- 1-------- 1 1----| 0------------------ 1----------|
G| 2------ 2---- 0-------- 0 0----| 0 2 0-------------- 0----------|
D|-- 4---------- 2---- 2-- 2------| 0 2 0-------------- 2----------|
A| 5---------- 5 3------------ 3--|---------------- 3---------- 3--|
E|--------------------------------| 3---------- 3------------------|
http://classicalguitartablature.blogspot.com/
E|--------------------------------|-------------------------- 0----|
B|---- 3-------------- 1----------| 0-------------- 1---- 3-- 1-- 0|
G|---- 0-------------- 0------ 2--|-------- 2-- 0-- 0--------------|
D|---- 4-------------- 2------ 2--|-- 0---------- 2---- 2----------|
A| 5---------- 5-- 3------ 0------|---------------- 3-------- 3----|
E|------------------------------ 3|------------ 3------------------|
http://classicalguitartablature.blogspot.com/
E|--------------------------------|--------------------------------|
B|---------------- 1-- 0-- 0-- 0--| 0-------------- 3------ 1 1 0--|
G| 2------ 2------ 0-- 0-- 0-- 0--| 0 2-- 0-------- 0------ 0 0 0--|
D|---- 4---------- 2-- 2-- 2-- 2--| 0-------------- 2---- 2-- 2 2--|
A| 5---------- 5-- 3------ 0------|---------------- 3---------- 3--|
E|--------------------------------| 3---------- 3------------------|
http://classicalguitartablature.blogspot.com/
E|--------------------------------|--------------------------------|
B| 0-------------- 3---- 0-- 0-- 0|------ 0-- 0-- 1------ 0---- 0--|
G|-------- 2------ 2-- 2 2--------|-- 2 0---- 0-------- 0------ 0--|
D|---- 4---------- 2---- 2--------|---------------------------- 2--|
A| 5---------- 5-- 3------ 0------|---------------- 3---------- 3--|
E|------------------------------ 3|---------- 3--------------------|
http://classicalguitartablature.blogspot.com/
E|-------- 3-- 3-- 3--------------|-------- 3-- 3-- 3--------------|
B| 0---------------------- 0-- 0--| 0-------------- 1-- 3-- 0-- 0--|
G|---- 2-------------- 0-- 0------|-- 2 0---------- 0-- 0------ 0--|
D|--------------------------------|--------------------------------|
A| 5---------- 5-- 3------ 0------|---------------- 3---------- 3--|
E|--------------------------------| 3---------- 3------------------|
http://classicalguitartablature.blogspot.com/
E|------ 3---- 3-- 3 0------------|-------- 3-- 3-------------- 3--|
B| 0---------- 0-- 1-- 3------ 3--|-------- 0-- 0------------------|
G|---- 2---------------------- 0--|------------------------ 0------|
D|---------------------------- 4--|---- 0-------------- 0----------|
A| 5---------- 5-- 3------ 5------|--------------------------------|
E|--------------------------------| 3-------------- 3--------------|
http://classicalguitartablature.blogspot.com/
E| 5---------- 5------------------|------------ 2-- 2---- 0-- 2----|
B| 5---- 5---------- 5------------|------------ 3-- 3-- 3------ 3--|
G|------ 5---------- 5-------- 5--|-------- 2------ 2---- 2-- 2----|
D|---- 5------------------ 5------|---- 4--------------------------|
A|--------------------------------| 5-------------- 5--------------|
E| 3------------------------------|--------------------------------|
http://classicalguitartablature.blogspot.com/
E| 3---------- 3------------------|------------ 3-- 3---- 2-- 3----|
B| 3---- 3---- 3------ 3----------|-------- 3-- 3-- 3--------------|
G| 0------ 0---------- 0------ 0--|---- 0-------- 0----------------|
D|---- 0------------------ 0------|--------------------------------|
A|--------------------------------|--------------------------------|
E| 3-------------- 3--------------| 3------------ 3----------------|
http://classicalguitartablature.blogspot.com/
E| 8---- 7------------------------| 1---------- 1-- 0---------- 0--|
B| 8----------10---- 8----10-- 8--| 1---------- 1-- 0------------ 3|
G| 9-- 9------ 9---- 9---- 9-- 9--| 2------ 2-------------- 2------|
D|--------------------------------|---- 3-------------- 3----------|
A|10--------------10--------------|--------------------------------|
E|--------------------------------| 3---------------- 3------------|
http://classicalguitartablature.blogspot.com/
E|--------------------------------| 3---- 1------------------------|
B|---------- 3---- 1-- 3---- 1----|------------ 3------ 1----------|
G| 2---- 2-------- 2--------------|---------------------------- 3--|
D|---- 3-------- 3----------------|--------------------------------|
A|--------------------------------|--------------------------------|
E| 3------------ 3----------------| 3------------------------------|
http://classicalguitartablature.blogspot.com/
E|--------------------------------|--------------------------------|
B|--------------------------------|--------------------------------|
G|---- 0--------------------------|-- 0----------------------------|
D|------------ 3------ 0----------| 0------------------------------|
A|--------------------------------|--------------------------------|
E|--------------------------------| 3------------------------------|
http://classicalguitartablature.blogspot.com/

0 ความคิดเห็น:

แสดงความคิดเห็น