To celebrate the anniversary, I am giving you (finally...) : iPhone LickByNeck !!!!!!
0 com

Radio Gaga (BASIC)

Queen's tune fingerstyle chord melody guitar BASIC arrangement played in the key of F.

Radio Gaga - Queen - BASIC ARRANGEMENT played in the key of F.
http://classicalguitartablature.blogspot.com/
E|--------------------------------|--------------------------------|
B|--------------------------------|--------------------------------|
G|--------------------------------|--------------------------------|
D|---- 3-- 3----------------------|---- 3---- 3--------------------|
A|--------------------------------|--------------------------------|
E| 1 1-- 1 1-- 1 1 1------------ 1| 1 1-- 1 1-- 1 1 1--------------|
http://classicalguitartablature.blogspot.com/
E|--------------------------------|--------------------------------|
B| 1-- 3------ 1-------------- 1--| 1---- 3---- 1------ 1------ 3--|
G| 2-- 2------ 2------ 2------ 2--| 2---- 2---- 2------ 2------ 2--|
D| 3-- 3------ 3-------------- 3--| 3---- 3---- 3------ 3------ 3--|
A|--------------------------------|--------------------------------|
E| 1------ 1------ 1------ 1------| 1------ 1------ 1------ 1------|
http://classicalguitartablature.blogspot.com/
http://classicalguitartablature.blogspot.com/
E|--------------------------------|---------------------------- 3--|
B| 3-- 5------ 3-------------- 3--| 3---- 5---- 3-------------- 3--|
G| 3-- 3------ 3------ 3------ 3--| 3-- 3------ 3-------------- 3--|
D| 5-- 5------ 5------ 5------ 5--| 5-- 5------ 5------ 5----------|
A|--------------------------------|--------------------------------|
E| 3------ 3------ 3------ 3------| 3------ 3------ 3------ 3------|
http://classicalguitartablature.blogspot.com/
E|--------------------------------|--------------------------------|
B| 8-- 6------ 6------ 6------ 8--| 8-- 6------ 6-------------- 6--|
G| 7-- 7------ 7------ 7------ 7--| 7-- 7------ 7------ 7------ 7--|
D| 8-- 8------ 8------ 8------ 8--| 8-- 8------ 8-------------- 8--|
A|--------------------------------|--------------------------------|
E| 6------ 6------ 6------ 6------| 6------ 6------ 6------ 6------|
http://classicalguitartablature.blogspot.com/
E|--------------------------------|--------------------------------|
B| 3------ 3-- 3------ 3------ 3--| 3---------- 1-- 1--------------|
G| 3------ 3-- 3------ 3------ 3--| 3---------- 2-- 2---------- 2--|
D| 5---------- 5------ 5------ 5--| 3---------- 3-- 3---------- 3--|
A|--------------------------------|--------------------------------|
E| 3------ 3------ 3------ 3------| 1------ 1------ 1------ 1------|
http://classicalguitartablature.blogspot.com/
E|--------------------------------|--------------------------------|
B| 3---------- 1-- 1---------- 1--| 1-- 3------ 1-------------- 1--|
G| 3---------- 2-- 2---------- 2--| 2-- 2------ 2------ 2------ 2--|
D| 3---------- 3-- 3---------- 3--| 3-- 3------ 3-------------- 3--|
A|--------------------------------|--------------------------------|
E| 1------ 1------ 1------ 1------| 1------ 1------ 1------ 1------|
http://classicalguitartablature.blogspot.com/
E|--------------------------------|--------------------------------|
B| 1---- 3---- 1------ 1------ 3--| 3-- 5------ 3-------------- 3--|
G| 2---- 2---- 2------ 2------ 2--| 3-- 3------ 3------ 3------ 3--|
D| 3---- 3---- 3------ 3------ 3--| 5-- 5------ 5------ 5------ 5--|
A|--------------------------------|--------------------------------|
E| 1------ 1------ 1------ 1------| 3------ 3------ 3------ 3------|
http://classicalguitartablature.blogspot.com/
E|---------------------------- 3--|--------------------------------|
B| 3---- 5---- 3-------------- 3--| 8-- 6------ 6------ 6------ 8--|
G| 3-- 3------ 3-------------- 3--| 7-- 7------ 7------ 7------ 7--|
D| 5-- 5------ 5------ 5----------| 8-- 8------ 8------ 8------ 8--|
A|--------------------------------|--------------------------------|
E| 3------ 3------ 3------ 3------| 6------ 6------ 6------ 6------|
http://classicalguitartablature.blogspot.com/
E|--------------------------------|--------------------------------|
B| 8-- 6------ 6-------------- 6--| 3------ 3-- 3------ 3------ 3--|
G| 7-- 7------ 7------ 7------ 7--| 3------ 3-- 3------ 3------ 3--|
D| 8-- 8------ 8-------------- 8--| 5---------- 5------ 5------ 5--|
A|--------------------------------|--------------------------------|
E| 6------ 6------ 6------ 6------| 3------ 3------ 3------ 3------|
http://classicalguitartablature.blogspot.com/
E|--------------------------------|---------------------------- 1--|
B| 3---------- 1-- 1--------------| 3---------- 1-- 1---------- 1--|
G| 3---------- 2-- 2---------- 2--| 3---------- 2-- 2---------- 2--|
D| 3---------- 3-- 3---------- 3--| 3---------- 3-- 3--------------|
A|--------------------------------|--------------------------------|
E| 1------ 1------ 1------ 1------| 1------ 1------ 1------ 1------|
http://classicalguitartablature.blogspot.com/
E| 1------ 3-- 1-------------- 1 1|------ 3---- 1-------------- 1--|
B| 1------ 1-- 1---------------- 1|------ 1---- 1-------------- 1--|
G| 2---------- 2-------------- 2--| 2------ 2-- 2-------------- 2--|
D|--------------------------------|--------------------------------|
A|--------------------------------|--------------------------------|
E| 1-- 1-- 1-- 1-- 1-- 1-- 1-- 1--| 1-- 1-- 1-- 1-- 1-- 1-- 1-- 1--|
http://classicalguitartablature.blogspot.com/
E|-------- 3----------------------|-------- 3------------------ 5--|
B| 6------ 6-- 6-------------- 6--| 6------ 6-- 6------------ 3----|
G| 5---------- 5------ 5------ 5--| 5------ 5-- 5------------------|
D| 3---------- 3------------------| 3---------- 3------------------|
A|--------------------------------|--------------------------------|
E| 4-- 4-- 4-- 4-- 4-- 4-- 4-- 4--| 4-- 4-- 4-- 4-- 4-- 4-- 4-- 4--|
http://classicalguitartablature.blogspot.com/
E| 5-------------------------- 5--| 5------------------------------|
B| 6------ 8 6---------------- 6--| 6---- 8-- 6-------------- 6----|
G|------ 7-- 7--------------------|------ 7-- 7-------------- 7----|
D|--------------------------------|--------------------------------|
A|--------------------------------|--------------------------------|
E| 6-- 6-- 6-- 6-- 6-- 6-- 6-- 6--| 6-- 6 6---- 6-- 6-- 6-- 6-- 6--|
http://classicalguitartablature.blogspot.com/
E|--------------------------------|--------------------------------|
B| 6------ 8-- 6-------------- 6--| 6------ 8-- 6------------------|
G| 7------ 7-- 7-------------- 7--| 7------ 7-- 7-------------- 5--|
D| 7------ 7-- 7-------------- 7--|------------ 7------------------|
A|--------------------------------|--------------------------------|
E| 7-- 7-- 7-- 7-- 7-- 7-- 7-- 7--| 7-- 7-- 7-- 7-- 7-- 7-- 7-- 7--|
http://classicalguitartablature.blogspot.com/
E|--------------------------------|--------------------------------|
B|10------11--10------------------|10------11--10------------------|
G|10------10--10------------------|10------10--10------------------|
D|10------10--10------------10----|10------10--10--------------10--|
A|--------------------------------|--------------------------------|
E| 8-- 8-- 8-- 8-- 8-- 8-- 8 8----| 8-- 8-- 8-- 8-- 8-- 8-- 8-- 8--|
http://classicalguitartablature.blogspot.com/
E|--------------------------------|--------------------------------|
B| 8------10-- 8------------------| 8------10-- 8------------------|
G| 9------ 9-- 9------------------| 9------ 9-- 9------------------|
D|10----------10--------------10--|10------10--10------------------|
A|--------------------------------|--------------------------------|
E| 8-- 8-- 8-- 8-- 8-- 8-- 8-- 8--| 8-- 8-- 8-- 8-- 8-- 8-- 8-- 8--|
http://classicalguitartablature.blogspot.com/
E|--------------------------------|--------------------------------|
B| 3---------- 1-- 1--------------|--------------------------------|
G| 3---------- 2-- 2---------- 2--| 3---------- 2-- 2--------------|
D| 3---------- 3-- 3------ 3------| 3---------- 3-- 3--------------|
A|--------------------------------|--------------------------------|
E| 1---------- 1-- 1--------------| 1---------- 1-- 1---------- 1--|
http://classicalguitartablature.blogspot.com/
E|------ 3------------------------|------------ 1------------------|
B| 6---------- 6------------------| 6-- 6-- 8-- 1------ 1----------|
G| 5---------- 5------ 5----------| 7-- 7-- 7-- 2------ 2----------|
D|--------------------------------| 8-- 8-- 8---------- 3----------|
A| 6---------- 6------------------|--------------------------------|
E|--------------------------------| 6---------- 1------------------|
http://classicalguitartablature.blogspot.com/
E|------------ 1------------------|------------ 1------------------|
B| 6-- 6-- 8-- 1------ 1----------| 6-- 6-- 8-- 1------ 1----------|
G| 7-- 7-- 7-- 2------ 2----------| 7-- 7-- 7-- 2------ 2----------|
D| 8-- 8-- 8---------- 3----------| 8-- 8-- 8---------- 3----------|
A|--------------------------------|--------------------------------|
E| 6---------- 1------------------| 6---------- 1------------------|
http://classicalguitartablature.blogspot.com/
E|------ 3------------------------|------------ 1------------------|
B| 6---------- 6------------------| 6-- 6-- 8-- 1------ 1----------|
G| 5---------- 5------ 5----------| 7-- 7-- 7-- 2------ 2----------|
D|--------------------------------| 8-- 8-- 8---------- 3----------|
A| 6---------- 6------------------|--------------------------------|
E|--------------------------------| 6---------- 1------------------|
http://classicalguitartablature.blogspot.com/
E|------------ 1------------------|--------------------------------|
B| 6-- 6-- 8-- 1------ 1----------|---------------------------- 3--|
G| 7-- 7-- 7-- 2------ 2----------|------------ 3------ 5----------|
D| 8-- 8-- 8---------- 3----------| 5------ 7----------------------|
A|--------------------------------| 6-------------- 6--------------|
E| 6---------- 1------------------|--------------------------------|
http://classicalguitartablature.blogspot.com/
E|--------------------------------|--------------------------------|
B|------------ 3-------------- 1--|-------- 5-- 6-------------- 6--|
G|-------- 3-------------- 0------| 7---------------------- 7------|
D|---- 3-------------- 2----------| 7------------------ 7----------|
A| 1-------------- 3--------------| 5-------------- 5--------------|
E|--------------------------------|--------------------------------|
http://classicalguitartablature.blogspot.com/
E| 1---------- 1 0------------ 0--|---------------- 0---------- 0--|
B| 1-------------- 1--------------| 3-------- 3-- 1----------------|
G| 0------ 0-------------- 0------|-------- 0-------------- 0------|
D|---- 2------------ 2------------|---- 2-------------- 2----------|
A| 3-------------- 3--------------| 3------------ 3----------------|
E|--------------------------------|------------------------------ 1|
http://classicalguitartablature.blogspot.com/
E|-- 1----------------------------|--------------------------------|
B| 1------------------------------|--------------------------------|
G| 2------------------------------|--------------------------------|
D|--------------------------------|---- 3---- 3--------------------|
A|--------------------------------|--------------------------------|
E|------------------------------ 1| 1 1-- 1 1-- 1 1 1------------ 1|
http://classicalguitartablature.blogspot.com/
E|--------------------------------|--------------------------------|
B|--------------------------------|--------------------------------|
G|--------------------------------|--------------------------------|
D|---- 3---- 3--------------------|---- 3---- 3--------------------|
A|--------------------------------|--------------------------------|
E| 1 1-- 1 1-- 1 1 1------------ 1| 1 1-- 1 1-- 1 1 1------------ 1|
http://classicalguitartablature.blogspot.com/
E|--------------------------------|--------------------------------|
B|--------------------------------|--------------------------------|
G|--------------------------------|--------------------------------|
D|---- 3---- 3--------------------|--------------------------------|
A|--------------------------------|--------------------------------|
E| 1 1-- 1 1-- 1 1 1--------------|--------------------------------|
http://classicalguitartablature.blogspot.com/
0 com

I Can See Clearly Now (BASIC)

Johnny Nash's tune fingerstyle chord melody guitar BASIC arrangement played in the key of D.

I Can See Clearly Now - Johnny Nash - BASIC ARRANGEMENT played in the key of D.
http://classicalguitartablature.blogspot.com/
E|--------------------------------|--------------------------------|
B|--------------------------------| 3---- 3---- 3------------------|
G|--------------------------------| 2---- 2---- 2------------------|
D|--------------------------------| 4---- 4---- 4------------------|
A|--------------------------------| 5---------- 5-- 0-- 0-- 5-- 0--|
E| 2-- 3-- 5----------------------|--------------------------------|
http://classicalguitartablature.blogspot.com/
E|--------------------------------|-------------------- 0-- 2-- 3--|
B| 3---- 3---- 3------------------|---------------- 3-- 3-- 3-- 3--|
G| 2---- 2---- 2------------------| 2---- 2---- 2-- 2------ 2-- 0--|
D| 4---- 4---- 4------------------| 4---- 4---- 4-- 4-------- 0----|
A| 5---------- 5-- 0-- 0-- 5-- 0--| 5---------- 5------------------|
E|--------------------------------|--------------------------------|
http://classicalguitartablature.blogspot.com/
http://classicalguitartablature.blogspot.com/
E|---- 2------ 0-------------- 2--|--------------------------------|
B|---- 3------ 3------ 3------ 3--|---- 3--------------------------|
G|---- 0------ 0------ 0------ 2--|---- 2------ 2------------------|
D|-------------------- 0----------|---- 4------ 4------------------|
A|--------------------------------| 5-------------- 0-- 0-- 5-- 0--|
E| 3-------------- 3--------------|--------------------------------|
http://classicalguitartablature.blogspot.com/
E|--------------------------------|-------------------- 0-- 2-- 3--|
B|--------------------------------|---------------- 3-- 3-- 3-- 3--|
G| 2---- 2---------- 2------------| 2---- 2---- 2-- 2-- 1-- 2-- 0--|
D| 4---- 4---- 4------------------| 4---- 4---- 4-- 4--------------|
A| 5---------- 5-- 0-- 0-- 5 0----| 5---------- 5------------------|
E|--------------------------------|--------------------------------|
http://classicalguitartablature.blogspot.com/
E|-------- 3-- 3------ 2-- 0------|--------------------------------|
B|-------- 3-- 3------ 3------ 3--| 2-- 3-- 5----------------------|
G|---- 0-- 0-- 0------ 0----------| 0-- 0-- 0----------------------|
D|--------------------------------| 2-- 4-- 5----------------------|
A|--------------------------------| 0------------ 0-------- 0------|
E| 3-------------- 3--------------|---------------- 0-- 0------ 0--|
http://classicalguitartablature.blogspot.com/
E|--------------------------------|-------------------- 0-- 2-- 3--|
B| 2------------------------------|---------------- 3-- 3-- 3-- 3--|
G| 0------ 0----------------------| 2---- 2---- 2-- 2------ 2-- 0--|
D| 2------ 2----------------------| 4---- 4---- 4-- 4-------- 0----|
A| 0------------ 0-------- 0------| 5---------- 5------------------|
E|---------------- 0-- 0------ 0--|--------------------------------|
http://classicalguitartablature.blogspot.com/
E|---- 2------ 0-------------- 2--|--------------------------------|
B|---- 3------ 3------ 3------ 3--|---- 3--------------------------|
G|---- 0------ 0------ 0------ 2--|---- 2------ 2------------------|
D|-------------------- 0----------|---- 4------ 4------------------|
A|--------------------------------| 5-------------- 0-- 0-- 5-- 0--|
E| 3-------------- 3--------------|--------------------------------|
http://classicalguitartablature.blogspot.com/
E|--------------------------------|--------------------------------|
B|---------------------------- 1--|------ 1---- 1------ 1------ 0--|
G| 2---- 2---- 2-- 2-- 2-- 2------|------ 0---- 0------ 0------ 0--|
D| 4---- 4---- 4-- 4-- 4-- 4------|------ 2------------ 2------ 0--|
A| 5---------- 5-- 0-- 0-- 5-- 0--| 3---------- 3------------------|
E|--------------------------------|--------------------------------|
http://classicalguitartablature.blogspot.com/
E|------------------------ 0------|--------------------------------|
B|------ 0---- 0-- 0-- 3------ 3--|--------------------------------|
G|------ 0---- 0-- 0-- 0------ 2--|------ 2-------- 2--------------|
D|------ 0---- 0-- 0---------- 4--|------ 4---- 4------------------|
A| 2---------- 2------------------| 5---------- 5-- 0-- 0-- 5-- 0--|
E|---------------- 3--------------|--------------------------------|
http://classicalguitartablature.blogspot.com/
E|--------------------------------|--------------------------------|
B|---------------------------- 1--|------ 1---- 1------ 1------ 0--|
G| 2---- 2---- 2-- 2-- 2-- 2------|------ 0---- 0------ 0------ 0--|
D| 4---- 4---- 4-- 4-- 4-- 4------|------ 2------------ 2------ 0--|
A| 5---------- 5-- 0-- 0-- 5-- 0--| 3---------- 3------------------|
E|--------------------------------|--------------------------------|
http://classicalguitartablature.blogspot.com/
E|------------------------ 0------|--------------------------------|
B|------ 0---- 0-- 0-- 3------ 3--|--------------------------------|
G|------ 0---- 0-- 0-- 0------ 2--|------ 2-------- 2--------------|
D|------ 0---- 0-- 0---------- 4--|------ 4---- 4------------------|
A| 2---------- 2------------------| 5---------- 5-- 0-- 0-- 5-- 0--|
E|---------------- 3--------------|--------------------------------|
http://classicalguitartablature.blogspot.com/
E|--------------------------------|--------------------------------|
B|--------------------------------|------------10--10--10--10--10--|
G| 2---- 2---------- 2------------|------10----10--10--10--10--10--|
D| 4---- 4---- 4------------------|------10----10--10--10--10--10--|
A| 5---------- 5-- 0-- 0-- 5 0----| 8---------- 8------------------|
E|--------------------------------|--------------------------------|
http://classicalguitartablature.blogspot.com/
E|---------------------------- 3--|------------ 0------------------|
B|------------10------ 8------ 1--|------ 1---- 1------------------|
G|----10------10----------10-- 0--|------ 0---- 0---------------- 0|
D|----10------10------------------|------ 2---------------- 2---- 2|
A| 8-------------- 8--------------| 3---------- 3---------- 3------|
E|--------------------------------|---------------- 3-- 3------ 3--|
http://classicalguitartablature.blogspot.com/
E|--------------------------------|--------------------------------|
B|--------------------------------|------------10--10--10--10--10--|
G|------ 0---- 0------------------|------10----10--10--10--10--10--|
D|------ 2---- 2------------------|------10----10--10--10--10--10--|
A| 3---------- 3---------- 3------| 8---------- 8-- 8--------------|
E|---------------- 3-- 3------ 3--|--------------------------------|
http://classicalguitartablature.blogspot.com/
E|--------------------------------| 5---- 5-- 5--------------------|
B|------10----10--10-- 8----------| 5---- 5---- 5---------- 5------|
G|------10----10--10--------10----| 6---- 6---- 6---------- 6------|
D|------10----10--10--------------|-------------------- 7------ 7--|
A| 8---------- 8-- 8--------------| 0---------- 0------------------|
E|--------------------------------|--------------------------------|
http://classicalguitartablature.blogspot.com/
E| 4------------------------------| 3------------------------------|
B| 5------------------------------| 3------------------------------|
G| 4---- 4---- 4---------- 4------| 0---- 0---- 0---------- 0------|
D|------ 6---- 6------ 6------ 6--|------ 0---- 0------ 0------ 0--|
A|--------------------------------|--------------------------------|
E| 4---------- 4------------------| 3---------- 3------------------|
http://classicalguitartablature.blogspot.com/
E| 4------------------------------| 3------------------------------|
B| 5------------------------------| 3------------------------------|
G| 4---- 4---- 4---------- 4------| 0---- 0---- 0---------- 0------|
D|------ 6---- 6------ 6------ 6--|------ 0---- 0------ 0------ 0--|
A|--------------------------------|--------------------------------|
E| 4---------- 4------------------| 3---------- 3------------------|
http://classicalguitartablature.blogspot.com/
E| 3------------------------------| 2------------------------------|
B| 1---------- 1-------- 1--------| 3---------- 3---------- 3------|
G| 0------ 0---------- 0----------| 2------ 2---------- 2------ 2--|
D|---- 2---------- 2---------- 2--|---- 4---------- 4--------------|
A| 3------------------------------| 2------------------------------|
E|--------------------------------|--------------------------------|
http://classicalguitartablature.blogspot.com/
E|--------------------------------|--------------------------------|
B| 5---- 5---- 5------------------|------ 5---- 5------------------|
G| 6---- 6---- 6------------------| 6---- 6---- 6------------------|
D| 7---- 7---- 7------------------| 7---- 7---- 7------------------|
A|--------------------------------|---------------- 0--------------|
E| 5---------- 5-- 0-- 0-- 5-- 0--| 5---------- 5-- 0------ 5-- 0--|
http://classicalguitartablature.blogspot.com/
E|-------------------- 0-- 2-- 3--|---- 2------ 0-------------- 2--|
B|---------------- 3-- 3-- 3-- 3--|---- 3------ 3------ 3------ 3--|
G| 2---- 2---- 2-- 2------ 2-- 0--|---- 0------ 0------ 0------ 2--|
D| 4---- 4---- 4-- 4-------- 0----|-------------------- 0----------|
A| 5---------- 5------------------|--------------------------------|
E|--------------------------------| 3-------------- 3--------------|
http://classicalguitartablature.blogspot.com/
E|--------------------------------|--------------------------------|
B|---- 3--------------------------|--------------------------------|
G|---- 2------ 2------------------| 2---- 2---------- 2------------|
D|---- 4------ 4------------------| 4---- 4---- 4------------------|
A| 5-------------- 0-- 0-- 5-- 0--| 5---------- 5-- 0-- 0-- 5 0----|
E|--------------------------------|--------------------------------|
http://classicalguitartablature.blogspot.com/
E|-------------------- 0-- 2-- 3--|-------- 3-- 3------ 2-- 0------|
B|---------------- 3-- 3-- 3-- 3--|-------- 3-- 3------ 3------ 3--|
G| 2---- 2---- 2-- 2-- 1-- 2-- 0--|---- 0-- 0-- 0------ 0----------|
D| 4---- 4---- 4-- 4--------------|--------------------------------|
A| 5---------- 5------------------|--------------------------------|
E|--------------------------------| 3-------------- 3--------------|
http://classicalguitartablature.blogspot.com/
E|--------------------------------|--------------------------------|
B| 2-- 3-- 5----------------------| 2------------------------------|
G| 0-- 0-- 0----------------------| 0------ 0----------------------|
D| 2-- 4-- 5----------------------| 2------ 2----------------------|
A| 0------------ 0-------- 0------| 0------------ 0-------- 0------|
E|---------------- 0-- 0------ 0--|---------------- 0-- 0------ 0--|
http://classicalguitartablature.blogspot.com/
E|-------------------- 0-- 2-- 3--|---- 2------ 0-------------- 2--|
B|---------------- 3-- 3-- 3-- 3--|---- 3------ 3------ 3------ 3--|
G| 2---- 2---- 2-- 2------ 2-- 0--|---- 0------ 0------ 0------ 2--|
D| 4---- 4---- 4-- 4-------- 0----|-------------------- 0----------|
A| 5---------- 5------------------|--------------------------------|
E|--------------------------------| 3-------------- 3--------------|
http://classicalguitartablature.blogspot.com/
E|--------------------------------|--------------------------------|
B|---- 3--------------------------|---------------------------- 1--|
G|---- 2------ 2------------------| 2---- 2---- 2-- 2-- 2-- 2------|
D|---- 4------ 4------------------| 4---- 4---- 4-- 4-- 4-- 4------|
A| 5-------------- 0-- 0-- 5-- 0--| 5---------- 5-- 0-- 0-- 5-- 0--|
E|--------------------------------|--------------------------------|
http://classicalguitartablature.blogspot.com/
E|--------------------------------|------------------------ 0------|
B|------ 1---- 1------ 1------ 0--|------ 0---- 0-- 0-- 3------ 3--|
G|------ 0---- 0------ 0------ 0--|------ 0---- 0-- 0-- 0------ 2--|
D|------ 2------------ 2------ 0--|------ 0---- 0-- 0---------- 4--|
A| 3---------- 3------------------| 2---------- 2------------------|
E|--------------------------------|---------------- 3--------------|
http://classicalguitartablature.blogspot.com/
E|--------------------------------|--------------------------------|
B|--------------------------------|---------------------------- 1--|
G|------ 2-------- 2--------------| 2---- 2---- 2-- 2-- 2-- 2------|
D|------ 4---- 4------------------| 4---- 4---- 4-- 4-- 4-- 4------|
A| 5---------- 5-- 0-- 0-- 5-- 0--| 5---------- 5-- 0-- 0-- 5-- 0--|
E|--------------------------------|--------------------------------|
http://classicalguitartablature.blogspot.com/
E|--------------------------------|------------------------ 0------|
B|------ 1---- 1------ 1------ 0--|------ 0---- 0-- 0-- 3------ 3--|
G|------ 0---- 0------ 0------ 0--|------ 0---- 0-- 0-- 0------ 2--|
D|------ 2------------ 2------ 0--|------ 0---- 0-- 0---------- 4--|
A| 3---------- 3------------------| 2---------- 2------------------|
E|--------------------------------|---------------- 3--------------|
http://classicalguitartablature.blogspot.com/
E|--------------------------------|--------------------------------|
B|--------------------------------|---------------------------- 1--|
G|------ 2-------- 2--------------| 2---- 2---- 2-- 2-- 2-- 2------|
D|------ 4---- 4------------------| 4---- 4---- 4-- 4-- 4-- 4------|
A| 5---------- 5-- 0-- 0-- 5-- 0--| 5---------- 5-- 0-- 0-- 5-- 0--|
E|--------------------------------|--------------------------------|
http://classicalguitartablature.blogspot.com/
E|--------------------------------|--------------------------------|
B|-------------- 1---------- 1----|-- 0------------ 0-- 0---- 3----|
G|-------- 0------------ 0------ 0|-- 0-------- 0------------------|
D|---- 2------------ 2------------|-------- 0----------------------|
A| 3------------------------------|-- 2----------------------------|
E|--------------------------------|--------------------------------|
http://classicalguitartablature.blogspot.com/
E| 0------------------------------|--------------------------------|
B|--------------------------------|------------ 3------------------|
G|--------------------------------|---------- 2--------------------|
D|--------------------------------|-------- 4----------------------|
A|--------------------------------|-------- 0----------------------|
E|--------------------------------|--------------------------------|
http://classicalguitartablature.blogspot.com/
0 com

Build Me Up Buttercup (BASIC)

The Foundations' tune fingerstyle chord melody guitar BASIC arrangement played in the key of C.

Build Me Up Buttercup -The Foundations - Naked Eyes - BASIC ARRANGEMENT played in the key of C.
http://classicalguitartablature.blogspot.com/
E|--------------------------------|--------------------------------|
B|-- 1-------- 1-- 1--------------|--------------------------------|
G| 0---------- 0-- 0--------------|--------------------------------|
D| 2---------- 2-- 2---------- 2--|---- 2------ 2-- 2--------------|
A| 3---------- 3-- 3--------------|--------------------------------|
E|---------------------------- 0--|---- 0------ 0-- 0--------------|
http://classicalguitartablature.blogspot.com/
E|--------------------------------|--------------------------------|
B|--------------------------------|--------------------------------|
G|---------------------------- 0--|---- 0------ 0-- 0--------------|
D| 3---------- 3-- 3---------- 0--|---- 0------ 0-- 0--------------|
A|--------------------------------|--------------------------------|
E| 1---------- 1-- 1---------- 3--|---- 3------ 3-- 3--------------|
http://classicalguitartablature.blogspot.com/
http://classicalguitartablature.blogspot.com/
E|--------------------------------|--------------------------------|
B| 1---------- 1-- 1--------------|--------------------------------|
G| 0---------- 0-- 0--------------|--------------------------------|
D| 2---------- 2-- 2---------- 2--|---- 2------ 2-- 2--------------|
A| 3------------ 3 3--------------|--------------------------------|
E|---------------------------- 0--|---- 0------ 0-- 0--------------|
http://classicalguitartablature.blogspot.com/
E|--------------------------------|---------------------------- 1--|
B|--------------------------------|------13------10------------ 1--|
G|--------------------------------|------10------10--------12-- 0--|
D| 3---------- 3-- 3--------------|------10------10----------------|
A|----------------------------10--|----10--------------------------|
E| 1---------- 1-- 1--------------|--------------------------------|
http://classicalguitartablature.blogspot.com/
E|---- 0 0-------------------- 1--|---- 0-------------- 0----------|
B|---- 1 1-------------------- 1--|---- 0------ 3-------------- 3--|
G|---- 0 0---------------- 0-- 1--|---- 1------ 1------------------|
D|------------ 2------ 2----------|-------- 0----------------------|
A| 3-------------- 3--------------|--------------------------------|
E|--------------------------------| 0-------------- 0--------------|
http://classicalguitartablature.blogspot.com/
E|--------------------------------| 1-- 1-- 1---- 0------------ 1--|
B| 3-- 1-- 1----------------------| 0-- 0-- 0-- 0------ 3-- 1-- 1--|
G| 2---------- 2---------- 2------| 0-- 0-- 0-- 0-------------- 0--|
D| 3------------------ 3------ 3--|--------------------------------|
A|--------------------------------|--------------------------------|
E| 1-------------- 1--------------| 3-------------- 3--------------|
http://classicalguitartablature.blogspot.com/
E|---- 0 0-------------------- 1--|---- 0-------------- 0----------|
B|---- 1 1-------------------- 1--|---- 0------ 3-------------- 3--|
G|---- 0 0---------------- 0-- 1--|---- 1------ 1------------------|
D|------------ 2------ 2----------|-------- 0----------------------|
A| 3-------------- 3--------------|--------------------------------|
E|--------------------------------| 0-------------- 0--------------|
http://classicalguitartablature.blogspot.com/
E|--------------------------------| 1-- 1-- 1-- 0------ 0-- 1-- 3--|
B| 3-- 1-- 1----------------------| 0-- 0-- 0-- 0------ 0-- 0------|
G| 2---------- 2---------- 2------| 0-- 0-- 0-- 0------ 0-- 0------|
D| 3------------------ 3------ 3--|--------------------------------|
A|--------------------------------|--------------------------------|
E| 1-------------- 1--------------| 3-------------- 3--------------|
http://classicalguitartablature.blogspot.com/
E|-------------------- 0-- 1------|---- 5--------------------------|
B|------------ 1------ 1-- 1-- 8--|-------- 8-- 6------ 5------ 6--|
G|-------- 0---------- 0-- 0-- 7--|-------------------- 7------ 5--|
D|---- 2---------------------- 5--|-------------------- 5------ 3--|
A| 3-------------- 3--------------|--------------------------------|
E|--------------------------------| 6-------------- 6--------------|
http://classicalguitartablature.blogspot.com/
E|--------------------------------|--------------------------------|
B|---- 6---- 6-- 6---- 5---- 3----|--------------------------------|
G|---- 5---- 5-- 5---- 5---- 5-- 5|------------ 5-------------- 5--|
D|---- 3---- 3-- 3---- 3---- 3----|------ 3------------ 3----------|
A|--------------------------------|--------------------------------|
E| 5------------ 5----------------| 4-------------- 4--------------|
http://classicalguitartablature.blogspot.com/
E| 1-- 0-- 0----------------------|--------------------------------|
B| 1-- 1-- 1------------------ 3--|---- 3-- 3---- 3---- 1---- 0----|
G| 0-- 0-- 0-------------- 0------|---- 0 0------ 0----------------|
D|------------ 2------ 2----------|---- 0-- 0---- 0----------------|
A| 3-------------- 3--------------|--------------------------------|
E|--------------------------------| 3-------------- 3--------------|
http://classicalguitartablature.blogspot.com/
E|--------------------------------|--------------------------------|
B| 3-- 1---------- 1--------------|---- 1--------------------------|
G| 2-- 2---------- 2---- 0---- 5--| 0---------- 0-------------- 0--|
D| 3-- 3------ 3-- 3---- 2---- 7--| 2------ 2------------ 0--------|
A|---------------------------- 5--| 3------------------------------|
E| 1-------------- 1------ 0------|---------------- 3--------------|
http://classicalguitartablature.blogspot.com/
E|-------------------- 0----------|---------------------------- 0--|
B|-------- 1-- 3---------- 3-- 3--|---- 1-- 1-- 1---------- 1------|
G| 0-- 2------ 0------------------|---- 3-- 3-- 2------ 2----------|
D| 2---------- 0------------------|---- 3-- 3-- 3------------------|
A| 3------------------------------| 1------------------------------|
E|---------------- 3--------------|---------------- 1--------------|
http://classicalguitartablature.blogspot.com/
E|-------------------- 0----------|--------------------------------|
B|------------ 1-------- 3---- 1--| 3------------------------------|
G|------ 0------------------------| 2-- 2-- 2-- 0---------- 0-- 0--|
D|---- 2--------------------------| 3------------------ 3----------|
A| 3-------------- 3--------------|--------------------------------|
E|--------------------------------| 1-------------- 1--------------|
http://classicalguitartablature.blogspot.com/
E|-------------------- 0----------|---------------------------- 0--|
B|-------- 1-- 3---------- 3-- 3--|---- 1-- 1-- 1---------- 1------|
G| 0-- 2------ 0------------------|---- 3-- 3-- 2------ 2----------|
D| 2---------- 0------------------|---- 3-- 3-- 3------------------|
A| 3------------------------------| 1------------------------------|
E|---------------- 3--------------|---------------- 1--------------|
http://classicalguitartablature.blogspot.com/
E|-------------------- 0----------|--------------------------------|
B|------------ 1-------- 3---- 1--| 3------------------ 1------ 3--|
G|------ 0------------------------| 2-- 2-- 2-- 0-- 2-- 0------ 5--|
D|---- 2--------------------------| 3-------------- 3-- 2------ 3--|
A| 3-------------- 3--------------|--------------------------------|
E|--------------------------------| 1-------------- 1---- 0--------|
http://classicalguitartablature.blogspot.com/
E|--------------------------------|-------- 3---------- 1------ 3--|
B|-------- 6-- 3-- 6---------- 3--| 6-- 3-- 3---- 5---- 0-------- 0|
G|-------- 5-- 5-- 5------ 5------| 4-- 4-- 4---- 4---- 0-------- 0|
D|---- 3-- 3-- 3-- 3-- 3----------| 3-- 3-------- 3----------------|
A| 5-------------- 5--------------|--------------------------------|
E|--------------------------------| 3-------------- 3---- 1--------|
http://classicalguitartablature.blogspot.com/
E|-------- 3-- 0-- 3---------- 3--|---- 3------ 1------ 0------ 1--|
B|------------ 0-- 0------ 0-- 2--|---- 2------ 2------ 2------ 1--|
G|---- 0-------------- 0------ 0--|---- 0------ 0------ 0------ 2--|
D|--------------------------------|--------------------------------|
A|--------------------------------| 0-------------- 0--------------|
E| 0-------------- 0--------------|--------------------------------|
http://classicalguitartablature.blogspot.com/
E|---- 1 1------------ 0------ 2--|---- 2---- 2-- 2---- 0---- 2----|
B|---- 1 1-------------- 3---- 1--|---- 1------ 1 1---- 1---- 1----|
G|---- 2 2---- 2-------------- 2--|---- 2------ 2 2---- 2---- 2----|
D|--------------------------------|--------------------------------|
A|--------------------------------|--------------------------------|
E| 1-------------- 1--------------| 2-------------- 2--------------|
http://classicalguitartablature.blogspot.com/
E| 3------------------------------| 5---------- 3------------------|
B| 0-------------------------- 0--| 3------ 5-- 3------------------|
G| 0---------- 0---------- 0------| 4------ 4-- 4------------------|
D|-------- 3---------- 3----------|-------- 5----------------------|
A|--------------------------------|----------------------------10--|
E| 3-------------- 3--------------| 3------------------------------|
http://classicalguitartablature.blogspot.com/
E|---------------------------- 1--|---- 0 0-------------------- 1--|
B|------13------10------------ 1--|---- 1 1-------------------- 1--|
G|------10------10--------12-- 0--|---- 0 0---------------- 0-- 1--|
D|------10------10----------------|------------ 2------ 2----------|
A|----10--------------------------| 3-------------- 3--------------|
E|--------------------------------|--------------------------------|
http://classicalguitartablature.blogspot.com/
E|---- 0-------------- 0----------|--------------------------------|
B|---- 0------ 3-------------- 3--| 3-- 1-- 1----------------------|
G|---- 1------ 1------------------| 2---------- 2---------- 2------|
D|-------- 0----------------------| 3------------------ 3------ 3--|
A|--------------------------------|--------------------------------|
E| 0-------------- 0--------------| 1-------------- 1--------------|
http://classicalguitartablature.blogspot.com/
E| 1-- 1-- 1---- 0------------ 1--|---- 0 0-------------------- 1--|
B| 0-- 0-- 0-- 0------ 3-- 1-- 1--|---- 1 1-------------------- 1--|
G| 0-- 0-- 0-- 0-------------- 0--|---- 0 0---------------- 0-- 1--|
D|--------------------------------|------------ 2------ 2----------|
A|--------------------------------| 3-------------- 3--------------|
E| 3-------------- 3--------------|--------------------------------|
http://classicalguitartablature.blogspot.com/
E|---- 0-------------- 0----------|--------------------------------|
B|---- 0------ 3-------------- 3--| 3-- 1-- 1----------------------|
G|---- 1------ 1------------------| 2---------- 2---------- 2------|
D|-------- 0----------------------| 3------------------ 3------ 3--|
A|--------------------------------|--------------------------------|
E| 0-------------- 0--------------| 1-------------- 1--------------|
http://classicalguitartablature.blogspot.com/
E| 1-- 1-- 1-- 0------ 0-- 1-- 3--|-------------------- 0-- 1------|
B| 0-- 0-- 0-- 0------ 0-- 0------|------------ 1------ 1-- 1-- 8--|
G| 0-- 0-- 0-- 0------ 0-- 0------|-------- 0---------- 0-- 0-- 7--|
D|--------------------------------|---- 2---------------------- 5--|
A|--------------------------------| 3-------------- 3--------------|
E| 3-------------- 3--------------|--------------------------------|
http://classicalguitartablature.blogspot.com/
E|---- 5--------------------------|--------------------------------|
B|-------- 8-- 6------ 5------ 6--|---- 6---- 6-- 6---- 5---- 3----|
G|-------------------- 7------ 5--|---- 5---- 5-- 5---- 5---- 5-- 5|
D|-------------------- 5------ 3--|---- 3---- 3-- 3---- 3---- 3----|
A|--------------------------------|--------------------------------|
E| 6-------------- 6--------------| 5------------ 5----------------|
http://classicalguitartablature.blogspot.com/
E|--------------------------------| 1-- 0-- 0----------------------|
B|--------------------------------| 1-- 1-- 1------------------ 3--|
G|------------ 5-------------- 5--| 0-- 0-- 0-------------- 0------|
D|------ 3------------ 3----------|------------ 2------ 2----------|
A|--------------------------------| 3-------------- 3--------------|
E| 4-------------- 4--------------|--------------------------------|
http://classicalguitartablature.blogspot.com/
E|--------------------------------|--------------------------------|
B|---- 3-- 3---- 3---- 1---- 0----| 3-- 1---------- 1--------------|
G|---- 0 0------ 0----------------| 2-- 2---------- 2---- 0---- 5--|
D|---- 0-- 0---- 0----------------| 3-- 3------ 3-- 3---- 2---- 7--|
A|--------------------------------|---------------------------- 5--|
E| 3-------------- 3--------------| 1-------------- 1------ 0------|
http://classicalguitartablature.blogspot.com/
E|--------------------------------| 1-- 0-- 0----------------------|
B|---- 1--------------------------| 1-- 1-- 1------------------ 3--|
G| 0---------- 0-------------- 0--| 0-- 0-- 0-------------- 0------|
D| 2------ 2------------ 0--------|------------ 2------ 2----------|
A| 3------------------------------| 3-------------- 3--------------|
E|---------------- 3--------------|--------------------------------|
http://classicalguitartablature.blogspot.com/
E|--------------------------------|--------------------------------|
B|---- 3-- 3---- 3---- 1---- 0----| 3-- 1---------- 1--------------|
G|---- 0 0------ 0----------------| 2-- 2---------- 2---- 0---- 5--|
D|---- 0-- 0---- 0----------------| 3-- 3------ 3-- 3---- 2---- 7--|
A|--------------------------------|---------------------------- 5--|
E| 3-------------- 3--------------| 1-------------- 1------ 0------|
http://classicalguitartablature.blogspot.com/
E|--------------------------------|--------------------------------|
B|---- 1--------------------------| 1---------- 1-- 1--------------|
G| 0---------- 0-------------- 0--| 0---------- 0-- 0--------------|
D| 2------ 2------------ 0--------| 2---------- 2-- 2---------- 2--|
A| 3------------------------------| 3------------ 3 3--------------|
E|---------------- 3--------------|---------------------------- 0--|
http://classicalguitartablature.blogspot.com/
E|--------------------------------|--------------------------------|
B|--------------------------------|--------------------------------|
G|--------------------------------|---------------------------- 0--|
D|---- 2------ 2-- 2--------------| 3---------- 3-- 3---------- 0--|
A|--------------------------------|--------------------------------|
E|---- 0------ 0-- 0--------------| 1---------- 1-- 1---------- 3--|
http://classicalguitartablature.blogspot.com/
E|--------------------------------|--------------------------------|
B|--------------------------------| 1---------- 1-- 1--------------|
G|---- 0------ 0-- 0--------------| 0---------- 0-- 0--------------|
D|---- 0------ 0-- 0--------------| 2---------- 2-- 2---------- 2--|
A|--------------------------------| 3------------ 3 3--------------|
E|---- 3------ 3-- 3--------------|---------------------------- 0--|
http://classicalguitartablature.blogspot.com/
E|--------------------------------|--------------------------------|
B|--------------------------------|--------------------------------|
G|--------------------------------|---------------------------- 0--|
D|---- 2------ 2-- 2--------------| 3---------- 3-- 3---------- 0--|
A|--------------------------------|--------------------------------|
E|---- 0------ 0-- 0--------------| 1---------- 1-- 1---------- 3--|
http://classicalguitartablature.blogspot.com/
E|--------------------------------|--------------------------------|
B|--------------------------------|--------------------------------|
G|---- 0------ 0-- 0--------------| 0------------------------------|
D|---- 0------ 0-- 0--------------| 2------------------------------|
A|--------------------------------| 3------------------------------|
E|---- 3------ 3-- 3--------------|--------------------------------|
http://classicalguitartablature.blogspot.com/
0 com

Poker Face (BASIC)

Lady Gaga's tune fingerstyle chord melody guitar BASIC arrangement played in the key of Am.

Poker Face - Lady Gaga - BASIC ARRANGEMENT played in the key of Am.
http://classicalguitartablature.blogspot.com/
E|--------------------------------|--------------------------------|
B|--------------------------------|--------------------------------|
G|--------------------------------|--------------------------------|
D| 7-- 7--------------------------| 7-- 7---------- 5-- 5----------|
A|---------------- 7-- 7----------|-------- 8----------------------|
E|-------- 5-- 5---------- 5-- 5--|------------ 8---------- 3-- 3--|
http://classicalguitartablature.blogspot.com/
E|--------------------------------|--------------------------------|
B|--------------------------------|--------------------------------|
G|--------------------------------|--------------------------------|
D| 7-- 7--------------------------| 7-- 7---------- 5-- 5----------|
A|---------------- 7-- 7----------|-------- 8----------------------|
E|-------- 5-- 5---------- 5-- 5--|------------ 8---------- 3-- 3--|
http://classicalguitartablature.blogspot.com/
http://classicalguitartablature.blogspot.com/
E|--------------------------------|--------------------------------|
B|--------------------------------|---------------- 3---- 3--------|
G| 5-- 5-- 5-- 5-- 5-- 5-- 5 5----| 5-- 5 5---- 5------ 5------ 5--|
D| 7-- 7--------------------------| 7-- 7---------- 5-- 5----------|
A|---------------- 7-- 7----------|-------- 8----------------------|
E|-------- 5-- 5---------- 5-- 5--|------------ 8---------- 3-- 3--|
http://classicalguitartablature.blogspot.com/
E|--------------------------------|--------------------------------|
B| 5-- 5-- 5-- 5 5---- 5 5-- 5----| 5-- 5 5---- 5 6---- 5-- 6-- 5--|
G|--------------------------------|--------------------------------|
D| 7-- 7--------------------------| 7-- 7---------- 5-- 5----------|
A|---------------- 7-- 7----------|-------- 8----------------------|
E|-------- 5-- 5---------- 5 5----|------------ 8---------- 3-- 3--|
http://classicalguitartablature.blogspot.com/
E|--------------------------------|--------------------------------|
B|---- 1-- 1-- 1-- 1-- 1-- 1-- 1--| 1-- 1-- 1-- 1------------------|
G|---- 2-- 2-- 2-- 2-- 2-- 2-- 2--| 2-- 2-- 2-- 2------ 0-- 0-- 0--|
D|---- 2------ 2-- 2-- 2-- 2------| 2-- 2-- 2-- 2------ 0-- 0-- 0--|
A| 0-- 0-- 0-- 0-- 0-- 0-- 0-- 0--| 0-- 0-- 0-- 0-- 0--------------|
E|--------------------------------|-------------------- 3-- 3-- 3--|
http://classicalguitartablature.blogspot.com/
E|--------------------------------|--------------------------------|
B|---- 1-- 1-- 1-- 1-- 1-- 1-- 1--| 1-- 1-- 1-- 1------------------|
G|---- 2-- 2-- 2-- 2-- 2-- 2-- 2--| 2-- 2-- 2-- 2------ 0-- 0-- 0--|
D|---- 2------ 2-- 2-- 2-- 2------| 2-- 2-- 2-- 2------ 0-- 0-- 0--|
A| 0-- 0-- 0-- 0-- 0-- 0-- 0-- 0--| 0-- 0-- 0-- 0-- 0--------------|
E|--------------------------------|-------------------- 3-- 3-- 3--|
http://classicalguitartablature.blogspot.com/
E| 5------------------------------|--------------------------------|
B| 5-- 5---------- 6-- 5---- 5----| 6-- 5---------- 0--------------|
G| 5-- 5-- 8-- 5-- 5-- 5-- 8 5----| 5 5-- 7-- 5---- 0--------------|
D|---- 5-- 5-- 5-- 5-- 5-- 5 5----| 5-- 5-- 5 5---- 0--------------|
A| 0-- 0-- 0-- 0-- 0-- 0-- 0-- 0--| 0-- 0-- 0-- 0------------------|
E|--------------------------------|---------------- 3-- 3-- 3-- 3--|
http://classicalguitartablature.blogspot.com/
E|--------------------------------|--------------------------------|
B|---- 1-- 1-- 1-- 1-- 1-- 1-- 1--| 1-- 1-- 1-- 1------------------|
G|---- 2-- 2-- 2-- 2-- 2-- 2-- 2--| 2-- 2-- 2-- 2------ 0-- 0-- 0--|
D|---- 2------ 2-- 2-- 2-- 2------| 2-- 2-- 2-- 2------ 0-- 0-- 0--|
A| 0-- 0-- 0-- 0-- 0-- 0-- 0-- 0--| 0-- 0-- 0-- 0-- 0--------------|
E|--------------------------------|-------------------- 3-- 3-- 3--|
http://classicalguitartablature.blogspot.com/
E|---------- 0---- 1---- 0--------|------------ 0------------------|
B|------------ 1-- 0---- 1--------|------------ 1-- 4-- 5-- 4------|
G| 2-------------- 2------ 2------| 2---------- 2-------------- 0--|
D| 2------------------------------| 3------------------------------|
A| 0-- 0 0---- 0-- 0-- 0-- 0-- 0--| 0-- 0-- 0-- 0------------------|
E|--------------------------------|---------------- 3-- 3-- 3-- 3--|
http://classicalguitartablature.blogspot.com/
E|--------------------------------|--------------------------------|
B|---- 1-- 1-- 1-- 1-- 1-- 1-- 1--| 1-- 1-- 1-- 1------------------|
G|---- 2-- 2-- 2-- 2-- 2-- 2-- 2--| 2-- 2-- 2-- 2------ 0-- 0-- 0--|
D|---- 2------ 2-- 2-- 2-- 2------| 2-- 2-- 2-- 2------ 0-- 0-- 0--|
A| 0-- 0-- 0-- 0-- 0-- 0-- 0-- 0--| 0-- 0-- 0-- 0-- 0--------------|
E|--------------------------------|-------------------- 3-- 3-- 3--|
http://classicalguitartablature.blogspot.com/
E|---------- 0---- 1---- 0--------|------------ 0------------------|
B|------------ 1-- 0---- 1--------|------------ 1-- 4-- 5-- 4------|
G| 2-------------- 2------ 2------| 2---------- 2-------------- 0--|
D| 2------------------------------| 3------------------------------|
A| 0-- 0 0---- 0-- 0-- 0-- 0-- 0--| 0-- 0-- 0-- 0------------------|
E|--------------------------------|---------------- 3-- 3-- 3-- 3--|
http://classicalguitartablature.blogspot.com/
E|--------------------------------|--------------------------------|
B|---- 1-- 1-- 1-- 1-- 1-- 1-- 1--| 1-- 1-- 1-- 1------------------|
G|---- 2-- 2-- 2-- 2-- 2-- 2-- 2--| 2-- 2-- 2-- 2------ 0-- 0-- 0--|
D|---- 2------ 2-- 2-- 2-- 2------| 2-- 2-- 2-- 2------ 0-- 0-- 0--|
A| 0-- 0-- 0-- 0-- 0-- 0-- 0-- 0--| 0-- 0-- 0-- 0-- 0--------------|
E|--------------------------------|-------------------- 3-- 3-- 3--|
http://classicalguitartablature.blogspot.com/
E|---- 8 7---------- 8---- 7 3----|---- 3-- 1 0-- 1------ 0--------|
B|---- 5-- 5-- 8------ 7 5---- 1--|---- 1-- 1-- 1-- 1---- 1--------|
G|-------- 5 5------ 5---- 5-- 2--|------ 2---- 2-- 2---- 2--------|
D|------------ 5------------------|--------------------------------|
A| 0-- 0-- 0-- 0-- 0-- 0-- 0-- 0--|--------------------------------|
E|--------------------------------| 1-- 1-- 1-- 1-- 1-- 1-- 1-- 1--|
http://classicalguitartablature.blogspot.com/
E| 0------ 3-- 3------------------|--------------------------------|
B| 1------ 1-- 1------------------| 1------ 1 0---- 1-- 1-- 0------|
G| 0------ 0-- 0------------------| 0------ 0-- 0-- 0-- 0 0---- 0--|
D|--------------------------------| 0------ 0------ 0-- 0----------|
A| 3 3---- 3-- 3-- 3-- 3-- 3-- 3--| 2-- 2-- 2-- 2-- 2-- 2-- 2-- 2--|
E|--------------------------------|--------------------------------|
http://classicalguitartablature.blogspot.com/
E|---- 8 7---------- 8---- 7 3----|---- 3-- 1 0-- 1------ 0--------|
B|---- 5-- 5-- 8------ 7 5---- 1--|---- 1-- 1-- 1-- 1---- 1--------|
G|-------- 5 5------ 5---- 5-- 2--|------ 2---- 2-- 2---- 2--------|
D|------------ 5------------------|--------------------------------|
A| 0-- 0-- 0-- 0-- 0-- 0-- 0-- 0--|--------------------------------|
E|--------------------------------| 1-- 1-- 1-- 1-- 1-- 1-- 1-- 1--|
http://classicalguitartablature.blogspot.com/
E| 0------ 3-- 3------------------|--------------------------------|
B| 1------ 1-- 1------------------| 1------ 1 0---- 1-- 1-- 0------|
G| 0------ 0-- 0------------------| 0------ 0-- 0-- 0-- 0 0---- 0--|
D|--------------------------------| 0------ 0------ 0-- 0----------|
A| 3 3---- 3-- 3-- 3-- 3-- 3-- 3--| 2-- 2-- 2-- 2-- 2-- 2-- 2-- 2--|
E|--------------------------------|--------------------------------|
http://classicalguitartablature.blogspot.com/
E|--------------------------------|--------------------------------|
B|---- 1-- 1-- 1-- 1-- 1-- 1-- 1--| 1-- 1-- 1-- 1------------------|
G|---- 2-- 2-- 2-- 2-- 2-- 2-- 2--| 2-- 2-- 2-- 2------ 0-- 0-- 0--|
D|---- 2------ 2-- 2-- 2-- 2------| 2-- 2-- 2-- 2------ 0-- 0-- 0--|
A| 0-- 0-- 0-- 0-- 0-- 0-- 0-- 0--| 0-- 0-- 0-- 0-- 0--------------|
E|--------------------------------|-------------------- 3-- 3-- 3--|
http://classicalguitartablature.blogspot.com/
E|--------------------------------|--------------------------------|
B|---- 1-- 1-- 1-- 1-- 1-- 1-- 1--| 1-- 1-- 1-- 1------------------|
G|---- 2-- 2-- 2-- 2-- 2-- 2-- 2--| 2-- 2-- 2-- 2------ 0-- 0-- 0--|
D|---- 2------ 2-- 2-- 2-- 2------| 2-- 2-- 2-- 2------ 0-- 0-- 0--|
A| 0-- 0-- 0-- 0-- 0-- 0-- 0-- 0--| 0-- 0-- 0-- 0-- 0--------------|
E|--------------------------------|-------------------- 3-- 3-- 3--|
http://classicalguitartablature.blogspot.com/
E|--------------------------------|--------------------------------|
B|--------------------------------|---------------- 3---- 3--------|
G| 5-- 5-- 5-- 5-- 5-- 5-- 5 5----| 5-- 5 5---- 5------ 5------ 5--|
D| 7-- 7--------------------------| 7-- 7---------- 5-- 5----------|
A|---------------- 7-- 7----------|-------- 8----------------------|
E|-------- 5-- 5---------- 5-- 5--|------------ 8---------- 3-- 3--|
http://classicalguitartablature.blogspot.com/
E|--------------------------------|--------------------------------|
B| 5-- 5-- 5-- 5 5---- 5 5-- 5----| 5-- 5 5---- 5 6---- 5-- 6-- 5--|
G|--------------------------------|--------------------------------|
D| 7-- 7--------------------------| 7-- 7---------- 5-- 5----------|
A|---------------- 7-- 7----------|-------- 8----------------------|
E|-------- 5-- 5---------- 5 5----|------------ 8---------- 3-- 3--|
http://classicalguitartablature.blogspot.com/
E|--------------------------------|--------------------------------|
B|--------------------------------|--------------------------------|
G| 2------------------------------|--------------------------------|
D| 2------------------------------|--------------------------------|
A| 0------------------------------|--------------------------------|
E|--------------------------------|--------------------------------|
http://classicalguitartablature.blogspot.com/
0 com

Midnight Cowboy (BASIC)

John Barry's tune fingerstyle chord melody guitar BASIC arrangement played in the key of G.

Midnight Cowboy Theme-John Barry-BASIC ARRANGEMENT played in the key of G.
http://classicalguitartablature.blogspot.com/
E| 5---------- 3----------| 2----------------------|
B|-------- 0---------- 0--|-------- 0-- 3---- 3----|
G|------ 0---------- 0----|------ 0-------- 0------|
D|---- 0-------- 0--------|---- 0---------- 0------|
A|------------------------|------------------------|
E| 3---------- 3----------| 3---------- 3----------|
http://classicalguitartablature.blogspot.com/
E| 3---------- 1----------| 0----------------------|
B| 1------ 1---------- 1--| 1------ 1-- 1------ 1--|
G|------ 2---------- 2----|------ 2-------- 2------|
D|---- 3---------- 3------|---- 3-------- 3--------|
A|------------------------|------------------------|
E| 1---------- 1----------| 1---------- 1----------|
http://classicalguitartablature.blogspot.com/
http://classicalguitartablature.blogspot.com/
E| 5---------- 3----------| 2----------------------|
B| 0------ 0---------- 0--|-------- 0-- 3---- 3----|
G|------ 0---------- 0----|------ 0---------- 0----|
D|---- 0---------- 0------|---- 0---------- 0------|
A|------------------------|------------------------|
E| 3---------- 3----------| 3---------- 3----------|
http://classicalguitartablature.blogspot.com/
E| 3---------- 1----------| 0----------------------|
B| 1------ 1---------- 1--|-------- 1-- 1------ 1--|
G|------ 2---------- 2----|------ 2---------- 2----|
D|---- 3---------- 3------|---- 3---------- 3------|
A|------------------------|------------------------|
E| 1---------- 1----------| 1---------- 1----------|
http://classicalguitartablature.blogspot.com/
E|------------------------|---------------- 0------|
B| 3----------------------|-------------------- 3--|
G|------ 0---------- 0----|------ 0----------------|
D|---- 0-- 0------ 0-- 0--|---- 0-- 0--------------|
A|------------------------|------------------------|
E| 3---------- 3----------| 3---------- 3----------|
http://classicalguitartablature.blogspot.com/
E|------------------------|-------------------- 3--|
B| 3-------------- 1-- 0--| 1----------------------|
G|------ 2-------- 2 2----| 2---- 2----------------|
D|---- 3-- 3------ 3-- 3--|---- 3-- 3------ 3------|
A|------------------------|------------------------|
E| 1---------- 1----------| 1---------- 1----------|
http://classicalguitartablature.blogspot.com/
E| 3----------------------|-------- 3-- 3------ 3--|
B|-------------------- 3--|-------- 3-- 3------ 3--|
G|------ 3------------ 3--|-------- 3-- 3----------|
D|---- 5-- 5------ 5------|---------------- 5------|
A| 6---------- 6----------| 6---------- 6----------|
E|------------------------|------------------------|
http://classicalguitartablature.blogspot.com/
E| 3-------------- 4-- 3--| 2----------------------|
B| 4----------------------| 3---------------- 3----|
G|------ 5----------------|------ 2------------ 2--|
D|---- 5-- 5--------------|---- 4-- 4------ 4------|
A|------------------------| 5---------- 5----------|
E| 4---------- 4----------|------------------------|
http://classicalguitartablature.blogspot.com/
E|------------------------|---------------- 0------|
B| 3----------------------|-------------------- 3--|
G|------ 0---------- 0----|------ 0----------------|
D|---- 0-- 0------ 0-- 0--|---- 0-- 0--------------|
A|------------------------|------------------------|
E| 3---------- 3----------| 3---------- 3----------|
http://classicalguitartablature.blogspot.com/
E|------------------------|-------------------- 3--|
B| 3-------------- 1-- 0--| 1----------------------|
G|------ 2-------- 2 2----| 2---- 2----------------|
D|---- 3-- 3------ 3-- 3--|---- 3-- 3------ 3------|
A|------------------------|------------------------|
E| 1---------- 1----------| 1---------- 1----------|
http://classicalguitartablature.blogspot.com/
E| 3----------------------|-------- 3-- 3------ 3--|
B|-------------------- 3--|-------- 3-- 3------ 3--|
G|------ 3------------ 3--|-------- 3-- 3----------|
D|---- 5-- 5------ 5------|---------------- 5------|
A| 6---------- 6----------| 6---------- 6----------|
E|------------------------|------------------------|
http://classicalguitartablature.blogspot.com/
E| 3-------------- 4-- 3--| 5---------------- 5----|
B| 4----------------------| 5------ 5--------------|
G|------ 5----------------|------ 5----------------|
D|---- 5-- 5--------------|---- 5---------- 5------|
A|------------------------| 5---------- 5----------|
E| 4---------- 4----------|------------------------|
http://classicalguitartablature.blogspot.com/
E| 7----------------------|------ 3---- 3---- 3----|
B|-------- 0--------------|------------ 0----------|
G|------ 0------------ 0--|------------------------|
D|---- 0---------- 0------|---- 0---------- 0------|
A|------------------------|------------------------|
E| 3---------- 3----------| 3---------- 3----------|
http://classicalguitartablature.blogspot.com/
E| 3------------------ 5--| 5------------------ 5--|
B| 1------ 1--------------|-------- 1--------------|
G|------ 2----------------|------ 2----------------|
D|---- 3---------- 3------|---- 3---------- 3------|
A|------------------------|------------------------|
E| 1---------- 1----------| 1---------- 1----------|
http://classicalguitartablature.blogspot.com/
E| 6----------------------|------------------------|
B| 8------ 8--------------|-------- 8 8-------- 8--|
G|------ 7------------ 7--|------------ 7----------|
D|---- 8---------- 8------|---- 8---------- 8------|
A| 6---------- 6----------| 6---------- 6----------|
E|------------------------|------------------------|
http://classicalguitartablature.blogspot.com/
E| 3------------ 4-- 3----| 2----------------------|
B| 4----------------------| 3------ 3---------- 3--|
G|------ 5----------------|------ 2----------------|
D|---- 5-- 5------------ 4|---- 4---------- 4------|
A|------------------------| 5---------- 5----------|
E| 4---------- 4----------|------------------------|
http://classicalguitartablature.blogspot.com/
E| 5---------- 3----------| 2----------------------|
B| 0------ 0---------- 0--|-------- 0-- 3---- 3----|
G|------ 0---------- 0----|------ 0---------- 0----|
D|---- 0---------- 0------|---- 0---------- 0------|
A|------------------------|------------------------|
E| 3---------- 3----------| 3---------- 3----------|
http://classicalguitartablature.blogspot.com/
E| 3---------- 1----------| 0----------------------|
B| 1------ 1---------- 1--|-------- 1-- 1------ 1--|
G|------ 2---------- 2----|------ 2---------- 2----|
D|---- 3---------- 3------|---- 3---------- 3------|
A|------------------------|------------------------|
E| 1---------- 1----------| 1---------- 1----------|
http://classicalguitartablature.blogspot.com/
E| 5---------- 3----------| 2----------------------|
B| 0------ 0---------- 0--|-------- 0-- 3---- 3----|
G|------ 0---------- 0----|------ 0---------- 0----|
D|---- 0---------- 0------|---- 0---------- 0------|
A|------------------------|------------------------|
E| 3---------- 3----------| 3---------- 3----------|
http://classicalguitartablature.blogspot.com/
E| 3---------- 1----------| 0----------------------|
B| 1------ 1---------- 1--|-------- 1-- 1------ 1--|
G|------ 2---------- 2----|------ 2---------- 2----|
D|---- 3---------- 3------|---- 3---------- 3------|
A|------------------------|------------------------|
E| 1---------- 1----------| 1---------- 1----------|
http://classicalguitartablature.blogspot.com/
E|------------------------|------------------------|
B|-- 3--------------------|------------------------|
G|-- 0--------------------|------------------------|
D| 0----------------------|------------------------|
A|------------------------|------------------------|
E| 3----------------------|------------------------|
http://classicalguitartablature.blogspot.com/
0 com

Baby Baby (BASIC)

Jennifer Lopez And Marc Anthony's tune fingerstyle chord melody guitar BASIC arrangement played in the key of C.

Baby Baby-Amy Grant-BASIC ARRANGEMENT played in the key of E.
http://classicalguitartablature.blogspot.com/
E|------------------------------ 4|---- 4--------------------------|
B| 5 5------ 5-- 7-- 7------ 5-- 5|---- 5---- 5---- 7 7-- 9-- 9-- 5|
G| 4 4---------- 6-- 6------ 6-- 4|---- 4---- 4---- 6-- 6-- 8 8-- 4|
D| 6 6------ 6-- 7-- 7------ 7----|---------- 6---- 7 7-- 9-- 9-- 6|
A|--------------------------------|--------------------------------|
E| 0-------- 0---- 0---------- 0--| 0---------- 0-- 5------ 7------|
http://classicalguitartablature.blogspot.com/
E|------------------------------ 4|-- 4----------------------------|
B|---- 5---- 5-- 7-- 7------ 5-- 5|-- 5------ 5-- 7-- 7-- 9-- 9----|
G|-- 4------ 4-- 6-- 6------ 6-- 4|-- 4------ 4-- 6-- 6---- 8 8----|
D|---- 6---- 6-- 7-- 7------ 7----|---------- 6-- 7-- 7-- 9-- 9----|
A|--------------------------------|--------------------------------|
E| 0---------- 0 0---------- 0-- 0|---------- 0-- 5------ 7------ 0|
http://classicalguitartablature.blogspot.com/
http://classicalguitartablature.blogspot.com/
E|------------------ 0------ 0----|---------- 0--------------------|
B|---------- 0-- 2---- 2----------|---- 0 2-------- 2--------------|
G|------ 1------ 2------------ 2--| 1-------------- 2------ 4------|
D|-- 2---------- 2----------------|---------------- 2------ 4------|
A|--------------------------------|---------------- 0------ 2------|
E|---------------- 0---------- 0 0|--------------------------------|
http://classicalguitartablature.blogspot.com/
E|---------------- 5-- 5 4-- 2----|------ 0------ 2----------------|
B|------------ 0-- 2-- 2-- 2 2----| 2 2-- 2-- 2-- 2------ 5--------|
G|---- 1------ 1-- 2-- 2---- 2----| 1------------ 2------ 4--------|
D|---- 2------ 2-- 2--------------| 2-- 2---- 2---------- 4--------|
A|--------------------------------|-------------- 0------ 2--------|
E| 0---------- 0-- 0---------- 0--| 0---------- 0---------------- 0|
http://classicalguitartablature.blogspot.com/
E|------------------ 0------ 0----|---------- 0--------------------|
B|---------- 0-- 2---- 2----------|---- 0 2-------- 2--------------|
G|------ 1------ 2------------ 2--| 1-------------- 2------ 4------|
D|-- 2---------- 2----------------|---------------- 2------ 4------|
A|--------------------------------|---------------- 0------ 2------|
E|---------------- 0---------- 0 0|--------------------------------|
http://classicalguitartablature.blogspot.com/
E|---------------- 5-- 5 4-- 2----|------ 0------ 2-------------- 2|
B|------------ 0-- 2-- 2-- 2 2----| 2 2-- 2-- 2-- 2------ 5------ 3|
G|---- 1------ 1-- 2-- 2---- 2----| 1------------ 2------ 4------ 2|
D|---- 2------ 2-- 2--------------| 2-- 2---- 2---------- 4--------|
A|--------------------------------|-------------- 0------ 2------ 5|
E| 0---------- 0-- 0---------- 0--| 0---------- 0------------------|
http://classicalguitartablature.blogspot.com/
E|------ 0---- 0-- 0--------------| 2------------------------------|
B|------ 3---- 3 3 3--------------| 2-- 2-- 5-- 2-- 5---- 5---- 5--|
G|------ 2---- 2 2 2---------- 2--| 2-- 2-- 2 2---- 2---- 2---- 4--|
D|-------------- 4------ 4--------|---- 4-- 4 4-- 4-- 4-------- 6--|
A|--------------------------------| 5------------------------------|
E|--------------------------------|------------------------------ 0|
http://classicalguitartablature.blogspot.com/
E|------------------------------ 4|---- 4--------------------------|
B|-- 5------ 5-- 7-- 7------ 5-- 5|---- 5---- 5---- 7 7-- 9-- 9-- 5|
G|-- 4------ 4-- 6-- 6------ 6-- 4|---- 4---- 4---- 6-- 6-- 8 8-- 4|
D|-- 6------ 6-- 7-- 7------ 7----|---------- 6---- 7 7-- 9-- 9-- 6|
A|--------------------------------|--------------------------------|
E|------------ 0 0---------- 0----| 0---------- 0-- 5------ 7------|
http://classicalguitartablature.blogspot.com/
E|------------------------------ 4|-- 4----------------------------|
B|---- 5---- 5-- 7-- 7------ 5-- 5|-- 5------ 5-- 7-- 7-- 9-- 9----|
G|-- 4------ 4-- 6-- 6------ 6-- 4|-- 4------ 4-- 6-- 6---- 8 8----|
D|---- 6---- 6-- 7-- 7------ 7----|---------- 6-- 7-- 7-- 9-- 9----|
A|--------------------------------|--------------------------------|
E| 0---------- 0 0---------- 0-- 0|---------- 0-- 5------ 7------ 0|
http://classicalguitartablature.blogspot.com/
E|------------------ 0------ 0----|---------- 0--------------------|
B|---------- 0-- 2---- 2----------|---- 0 2-------- 2--------------|
G|------ 1------ 2------------ 2--| 1-------------- 2------ 4------|
D|-- 2---------- 2----------------|---------------- 2------ 4------|
A|--------------------------------|---------------- 0------ 2------|
E|---------------- 0---------- 0 0|--------------------------------|
http://classicalguitartablature.blogspot.com/
E|---------------- 5-- 5 4-- 2----|------ 0------ 2----------------|
B|------------ 0-- 2-- 2-- 2 2----| 2 2-- 2-- 2-- 2------ 5--------|
G|---- 1------ 1-- 2-- 2---- 2----| 1------------ 2------ 4--------|
D|---- 2------ 2-- 2--------------| 2-- 2---- 2---------- 4--------|
A|--------------------------------|-------------- 0------ 2--------|
E| 0---------- 0-- 0---------- 0--| 0---------- 0---------------- 0|
http://classicalguitartablature.blogspot.com/
E|------------------ 0------ 0----|---------- 0--------------------|
B|---------- 0-- 2---- 2----------|---- 0 2-------- 2--------------|
G|------ 1------ 2------------ 2--| 1-------------- 2------ 4------|
D|-- 2---------- 2----------------|---------------- 2------ 4------|
A|--------------------------------|---------------- 0------ 2------|
E|---------------- 0---------- 0 0|--------------------------------|
http://classicalguitartablature.blogspot.com/
E|---------------- 5-- 5 4-- 2----|------ 0------ 2-------------- 2|
B|------------ 0-- 2-- 2-- 2 2----| 2 2-- 2-- 2-- 2------ 5------ 3|
G|---- 1------ 1-- 2-- 2---- 2----| 1------------ 2------ 4------ 2|
D|---- 2------ 2-- 2--------------| 2-- 2---- 2---------- 4--------|
A|--------------------------------|-------------- 0------ 2------ 5|
E| 0---------- 0-- 0---------- 0--| 0---------- 0------------------|
http://classicalguitartablature.blogspot.com/
E|------ 0---- 0-- 0--------------| 2------------------------------|
B|------ 3---- 3 3 3--------------| 2-- 2-- 5-- 2-- 5---- 5---- 5--|
G|------ 2---- 2 2 2---------- 2--| 2-- 2-- 2 2---- 2---- 2---- 4--|
D|-------------- 4------ 4--------|---- 4-- 4 4-- 4-- 4-------- 6--|
A|--------------------------------| 5------------------------------|
E|--------------------------------|------------------------------ 0|
http://classicalguitartablature.blogspot.com/
E|------------------------------ 4|---- 4------------------------ 4|
B|-- 5------ 5-- 7-- 7------ 5----|-- 5------ 5---- 7 7-- 9------ 4|
G|-- 4------ 4-- 6-- 6------ 6-- 4|-- 4------ 4---- 6 6-- 8--------|
D|-- 6------ 6-- 7-- 7------ 7----|---------- 6---- 7 7-- 9-- 9----|
A|--------------------------------|--------------------------------|
E|------------ 0 0---------- 0-- 0|------------ 0-- 5---- 7--------|
http://classicalguitartablature.blogspot.com/
E|-- 4-- 4------------------ 4----|--------------------------------|
B|-- 4-- 4-- 7-- 7------ 7------ 7|---- 5-- 5---- 5 7---- 5---- 0--|
G| 4 4---------- 4------ 4------ 6|-- 6---- 6 6--------------------|
D|------------------------------ 7|---- 7--------------------------|
A|--------------------------------|--------------------------------|
E| 7-- 7-- 7 7---- 7-- 7 7---- 7--| 5-- 5-- 5-- 5-- 5-- 5-- 5-- 5--|
http://classicalguitartablature.blogspot.com/
E| 4-- 4 4------------------------| 5 5---- 5-- 5 4------------ 2--|
B| 4---- 4---- 7 7------ 7---- 5--| 2------ 2-- 2-- 2-- 5-- 5-- 2--|
G| 4-- 4 4-- 4-- 4----------------| 2 2---- 2-- 2-- 2------ 2-- 3--|
D|--------------------------------|--------------------------------|
A|--------------------------------| 5-- 5-- 5-- 5-- 5-- 5-- 5------|
E| 7-- 7-- 7-- 7-- 7-- 7-- 7-- 7--|--------------------------------|
http://classicalguitartablature.blogspot.com/
E|---- 2------ 2-- 4-- 4---- 2----| 6-- 6------ 2-- 4-- 4-- 6 6-- 2|
B|---- 2------ 2-- 4-- 4----------| 2-- 2------ 2-- 4-- 4-- 6 6-- 2|
G|---- 3------ 3-- 4-- 4----------| 3-- 3------ 3-- 4-- 4-- 6 6-- 3|
D|--------------------------------|--------------------------------|
A|--------------------------------|---------------- 2------ 4------|
E| 2---------- 2-- 2---------- 2--| 2---------- 2------------------|
http://classicalguitartablature.blogspot.com/
E|---- 2------ 2-- 4-- 4---- 2----| 6-- 6------ 2-- 4-- 4-- 6 6----|
B|---- 2---- 2-- 4---- 4---- 2----| 2-- 2------ 2-- 4-- 4-- 6 6----|
G|---- 3---- 3---- 4-- 4---- 3----| 3-- 3------ 3-- 4-- 4-- 6 6----|
D|--------------------------------|--------------------------------|
A|--------------------------------|---------------- 2------ 4------|
E| 2---------- 2-- 2---------- 2--| 2---------- 2---------------- 2|
http://classicalguitartablature.blogspot.com/
E| 2------------------------------|--------------------------------|
B| 2------------------------------|--------------------------------|
G| 3------------------------------|--------------------------------|
D|--------------------------------|--------------------------------|
A|--------------------------------|--------------------------------|
E|--------------------------------|--------------------------------|
http://classicalguitartablature.blogspot.com/
0 com

Human Nature (BASIC)

Michael Jackson's tune fingerstyle chord melody guitar BASIC arrangement played in the key of D.

Human Nature - Michael Jackson - BASIC ARRANGEMENT played in the key of D.
http://classicalguitartablature.blogspot.com/
E|--------------------------------|--------------------------------|
B| 3 2 0-- 3---- 3---- 2---- 2-- 1|---- 1---- 1-- 1---- 0------ 0--|
G| 0-------- 2---- 2---- 2---- 2--|-- 4-- 2---- 0---- 0---- 0---- 0|
D| 0------------------------------| 3------------------------------|
A|------------ 0------------------|--------------------------------|
E| 3------------------------------| 1---------- 0------------------|
http://classicalguitartablature.blogspot.com/
E|--------------------------------|--------------------------------|
B| 3 2 3 0 3------ 3---- 2---- 2--| 1-- 1---- 1---- 1---- 0---- 0--|
G| 0---------- 2---- 2---- 2---- 2|-- 4-- 2---- 0---- 0---- 0---- 0|
D| 0------------------------------| 3------------------------------|
A|------------ 0------------------|--------------------------------|
E| 3------------------------------| 1---------- 0------------------|
http://classicalguitartablature.blogspot.com/
http://classicalguitartablature.blogspot.com/
E|--------------------------------|--------------------------------|
B| 0---- 3---- 2------------------|------ 0------------------------|
G| 0---- 0---- 2-------- 2--------|---------- 2--------------------|
D| 0---- 0---- 2---- 2------------|---- 0------ 4---- 2------------|
A|------------ 0------------------|-------------- 0----------------|
E| 3------------------------ 2----| 3-------------------- 0-- 2----|
http://classicalguitartablature.blogspot.com/
E|--------------------------------|--------------------------------|
B|------ 0 3-- 2-------------- 0--|--------------------------------|
G|-------- 0-- 2-- 4-- 4---- 2----|-- 2---- 2-------- 2------------|
D|-- 0---- 0-- 2-------- 2--------|---- 0---------- 0--------------|
A|-------------- 0----------------|------------ 0------------------|
E| 3-------------------- 2------ 3|------------------------ 0-- 2--|
http://classicalguitartablature.blogspot.com/
E|--------------------------------|--------------------------------|
B| 0---- 3---- 2------------------|------ 0------------------------|
G| 0---- 0---- 2-------- 2--------|---------- 2--------------------|
D| 0---- 0---- 2---- 2------------|---- 0------ 4---- 2------------|
A|------------ 0------------------|-------------- 0----------------|
E| 3------------------------ 2----| 3-------------------- 0-- 2----|
http://classicalguitartablature.blogspot.com/
E|---------------------- 2------ 0|--------------------------------|
B|------ 0-- 3-- 5------ 2-- 3-- 3|-- 3----------------------------|
G|---- 0-------- 2---- 2-------- 0|------ 0---------------- 0-- 2--|
D|-- 0---------- 2-- 2------------|------------ 0------ 0----------|
A|--------------------------------|---------------- 0--------------|
E| 3-------------- 2------------ 0|--------------------------------|
http://classicalguitartablature.blogspot.com/
E|--------------------------------|--------------------------------|
B| 0---- 3---- 2------------------|------ 0------------------------|
G| 0---- 0---- 2-------- 2--------|---------- 2--------------------|
D| 0---- 0---- 2---- 2------------|---- 0------ 4---- 2------------|
A|------------ 0------------------|-------------- 0----------------|
E| 3------------------------ 2----| 3-------------------- 0-- 2----|
http://classicalguitartablature.blogspot.com/
E|--------------------------------|--------------------------------|
B|------ 0 3-- 2-------------- 0--|--------------------------------|
G|-------- 0-- 2-- 4-- 4---- 2----|-- 2---- 2-------- 2------------|
D|-- 0---- 0-- 2-------- 2--------|---- 0---------- 0--------------|
A|-------------- 0----------------|------------ 0------------------|
E| 3-------------------- 2------ 3|------------------------ 0-- 2--|
http://classicalguitartablature.blogspot.com/
E|--------------------------------|--------------------------------|
B| 0---- 3---- 2------------------|------ 0------------------------|
G| 0---- 0---- 2-------- 2--------|---------- 2--------------------|
D| 0---- 0---- 2---- 2------------|---- 0------ 4---- 2------------|
A|------------ 0------------------|-------------- 0----------------|
E| 3------------------------ 2----| 3-------------------- 0-- 2----|
http://classicalguitartablature.blogspot.com/
E|---------------------- 2------ 0|--------------------------------|
B|------ 0-- 3-- 5------ 2-- 3-- 3|-- 3----------------------------|
G|---- 0-------- 2---- 2-------- 0|------ 0---------------- 0-- 2--|
D|-- 0---------- 2-- 2------------|------------ 0------ 0----------|
A|--------------------------------|---------------- 0--------------|
E| 3-------------- 2------------ 0|--------------------------------|
http://classicalguitartablature.blogspot.com/
E|------------------------------ 2|--------------------------------|
B| 0---- 0---- 2---------------- 5|-- 5 3---- 2 3---- 2 0-------- 0|
G| 0---- 0---- 2-------- 2------ 2|-- 2 2---- 2 2---- 2 2-- 2---- 0|
D| 0---- 0---- 2---- 2-------- 2--|-- 4-- 2-- 2 4---- 4 4-------- 0|
A|---------- 0 0------------------| 5---- 4-------- 2---- 0--------|
E| 3------------------------------|--------------------------------|
http://classicalguitartablature.blogspot.com/
E|--------------------------------|--------------------------------|
B|------ 0---- 2------------ 3 3 3| 5-- 3--------------------------|
G|------ 0---- 2-------- 2--------|-------- 4------------ 4 2------|
D|------ 0---- 2------ 2----------|--------------------------------|
A|--------------------------------|---------------- 2--------------|
E| 3-------- 0 2------------------|---- 0---- 0--------------------|
http://classicalguitartablature.blogspot.com/
E|------------------------------ 2|--------------------------------|
B| 0---- 0---- 2---------------- 5|-- 5 3---- 2 3---- 2 0-------- 0|
G| 0---- 0---- 2-------- 2------ 2|-- 2 2---- 2 2---- 2 2-- 2---- 0|
D| 0---- 0---- 2---- 2-------- 2--|-- 4-- 2-- 2 4---- 4 4-------- 0|
A|---------- 0 0------------------| 5---- 4-------- 2---- 0--------|
E| 3------------------------------|--------------------------------|
http://classicalguitartablature.blogspot.com/
E|--------------------------------|-- 0----------------------------|
B|------ 0---- 2------------ 3 3--| 3-- 3-- 0-------- 0------ 3 3--|
G|------ 0---- 2-------- 2--------| 0---------- 0---- 0---- 0------|
D|------ 0---- 2------ 2----------| 4------------ 4----------------|
A|--------------------------------|--------------------------------|
E| 3-------- 0 2------------------| 0------------------------------|
http://classicalguitartablature.blogspot.com/
E|-- 0-- 0------------------------|--------------------------------|
B| 3-- 3---- 3---------- 3--------| 3 2 3 0-- 3---- 3---- 2---- 2--|
G| 4------------ 4-- 4-------- 2--| 0---------- 2---- 2---- 2---- 2|
D| 5-------------- 5-- 5----------| 0------------------------------|
A| 0------------------------------|------------ 0------------------|
E|--------------------------------| 3------------------------------|
http://classicalguitartablature.blogspot.com/
E|--------------------------------|--------------------------------|
B| 1-- 1---- 1---- 1---- 0---- 0--| 3 2 3 0 3------ 3---- 2---- 2--|
G|-- 4-- 2---- 0---- 0---- 0---- 0| 0---------- 2---- 2---- 2---- 2|
D| 3------------------------------| 0------------------------------|
A|--------------------------------|------------ 0------------------|
E| 1---------- 0------------------| 3------------------------------|
http://classicalguitartablature.blogspot.com/
E|--------------------------------|--------------------------------|
B| 1-- 1---- 1---- 1---- 0---- 0--| 6 5 6 3-- 6---- 6---- 5---- 5--|
G|-- 4-- 2---- 0---- 0---- 0---- 0| 3---------- 5---- 5---- 5---- 5|
D| 3------------------------------| 3------------------------------|
A|--------------------------------|--------------------------------|
E| 1---------- 0------------------| 6---------- 5------------------|
http://classicalguitartablature.blogspot.com/
E|--------------------------------| 5-- 5---- 5---- 5---- 5--------|
B| 1-- 1---- 1---- 1---- 0---- 0--| 8 8-- 6 5-- 5------------ 5 5 6|
G|-- 4-- 2---- 0---- 0---- 0---- 0| 7---------------- 7---- 7------|
D| 3------------------------------|--------------------------------|
A|--------------------------------|--------------------------------|
E| 1---------- 0------------------| 6------------------------------|
http://classicalguitartablature.blogspot.com/
E| 5-- 5---- 5---- 5---- 5--------|-- 5----------------------------|
B| 8 8-- 6 5-- 5------------ 5 5 6|-- 6----------------------------|
G| 7---------------- 7---- 7------| 5------------------------------|
D|--------------------------------|--------------------------------|
A|--------------------------------|--------------------------------|
E| 6------------------------------| 6------------------------------|
http://classicalguitartablature.blogspot.com/