To celebrate the anniversary, I am giving you (finally...) : iPhone LickByNeck !!!!!!

Build Me Up Buttercup (BASIC)

The Foundations' tune fingerstyle chord melody guitar BASIC arrangement played in the key of C.

Build Me Up Buttercup -The Foundations - Naked Eyes - BASIC ARRANGEMENT played in the key of C.
http://classicalguitartablature.blogspot.com/
E|--------------------------------|--------------------------------|
B|-- 1-------- 1-- 1--------------|--------------------------------|
G| 0---------- 0-- 0--------------|--------------------------------|
D| 2---------- 2-- 2---------- 2--|---- 2------ 2-- 2--------------|
A| 3---------- 3-- 3--------------|--------------------------------|
E|---------------------------- 0--|---- 0------ 0-- 0--------------|
http://classicalguitartablature.blogspot.com/
E|--------------------------------|--------------------------------|
B|--------------------------------|--------------------------------|
G|---------------------------- 0--|---- 0------ 0-- 0--------------|
D| 3---------- 3-- 3---------- 0--|---- 0------ 0-- 0--------------|
A|--------------------------------|--------------------------------|
E| 1---------- 1-- 1---------- 3--|---- 3------ 3-- 3--------------|
http://classicalguitartablature.blogspot.com/
http://classicalguitartablature.blogspot.com/
E|--------------------------------|--------------------------------|
B| 1---------- 1-- 1--------------|--------------------------------|
G| 0---------- 0-- 0--------------|--------------------------------|
D| 2---------- 2-- 2---------- 2--|---- 2------ 2-- 2--------------|
A| 3------------ 3 3--------------|--------------------------------|
E|---------------------------- 0--|---- 0------ 0-- 0--------------|
http://classicalguitartablature.blogspot.com/
E|--------------------------------|---------------------------- 1--|
B|--------------------------------|------13------10------------ 1--|
G|--------------------------------|------10------10--------12-- 0--|
D| 3---------- 3-- 3--------------|------10------10----------------|
A|----------------------------10--|----10--------------------------|
E| 1---------- 1-- 1--------------|--------------------------------|
http://classicalguitartablature.blogspot.com/
E|---- 0 0-------------------- 1--|---- 0-------------- 0----------|
B|---- 1 1-------------------- 1--|---- 0------ 3-------------- 3--|
G|---- 0 0---------------- 0-- 1--|---- 1------ 1------------------|
D|------------ 2------ 2----------|-------- 0----------------------|
A| 3-------------- 3--------------|--------------------------------|
E|--------------------------------| 0-------------- 0--------------|
http://classicalguitartablature.blogspot.com/
E|--------------------------------| 1-- 1-- 1---- 0------------ 1--|
B| 3-- 1-- 1----------------------| 0-- 0-- 0-- 0------ 3-- 1-- 1--|
G| 2---------- 2---------- 2------| 0-- 0-- 0-- 0-------------- 0--|
D| 3------------------ 3------ 3--|--------------------------------|
A|--------------------------------|--------------------------------|
E| 1-------------- 1--------------| 3-------------- 3--------------|
http://classicalguitartablature.blogspot.com/
E|---- 0 0-------------------- 1--|---- 0-------------- 0----------|
B|---- 1 1-------------------- 1--|---- 0------ 3-------------- 3--|
G|---- 0 0---------------- 0-- 1--|---- 1------ 1------------------|
D|------------ 2------ 2----------|-------- 0----------------------|
A| 3-------------- 3--------------|--------------------------------|
E|--------------------------------| 0-------------- 0--------------|
http://classicalguitartablature.blogspot.com/
E|--------------------------------| 1-- 1-- 1-- 0------ 0-- 1-- 3--|
B| 3-- 1-- 1----------------------| 0-- 0-- 0-- 0------ 0-- 0------|
G| 2---------- 2---------- 2------| 0-- 0-- 0-- 0------ 0-- 0------|
D| 3------------------ 3------ 3--|--------------------------------|
A|--------------------------------|--------------------------------|
E| 1-------------- 1--------------| 3-------------- 3--------------|
http://classicalguitartablature.blogspot.com/
E|-------------------- 0-- 1------|---- 5--------------------------|
B|------------ 1------ 1-- 1-- 8--|-------- 8-- 6------ 5------ 6--|
G|-------- 0---------- 0-- 0-- 7--|-------------------- 7------ 5--|
D|---- 2---------------------- 5--|-------------------- 5------ 3--|
A| 3-------------- 3--------------|--------------------------------|
E|--------------------------------| 6-------------- 6--------------|
http://classicalguitartablature.blogspot.com/
E|--------------------------------|--------------------------------|
B|---- 6---- 6-- 6---- 5---- 3----|--------------------------------|
G|---- 5---- 5-- 5---- 5---- 5-- 5|------------ 5-------------- 5--|
D|---- 3---- 3-- 3---- 3---- 3----|------ 3------------ 3----------|
A|--------------------------------|--------------------------------|
E| 5------------ 5----------------| 4-------------- 4--------------|
http://classicalguitartablature.blogspot.com/
E| 1-- 0-- 0----------------------|--------------------------------|
B| 1-- 1-- 1------------------ 3--|---- 3-- 3---- 3---- 1---- 0----|
G| 0-- 0-- 0-------------- 0------|---- 0 0------ 0----------------|
D|------------ 2------ 2----------|---- 0-- 0---- 0----------------|
A| 3-------------- 3--------------|--------------------------------|
E|--------------------------------| 3-------------- 3--------------|
http://classicalguitartablature.blogspot.com/
E|--------------------------------|--------------------------------|
B| 3-- 1---------- 1--------------|---- 1--------------------------|
G| 2-- 2---------- 2---- 0---- 5--| 0---------- 0-------------- 0--|
D| 3-- 3------ 3-- 3---- 2---- 7--| 2------ 2------------ 0--------|
A|---------------------------- 5--| 3------------------------------|
E| 1-------------- 1------ 0------|---------------- 3--------------|
http://classicalguitartablature.blogspot.com/
E|-------------------- 0----------|---------------------------- 0--|
B|-------- 1-- 3---------- 3-- 3--|---- 1-- 1-- 1---------- 1------|
G| 0-- 2------ 0------------------|---- 3-- 3-- 2------ 2----------|
D| 2---------- 0------------------|---- 3-- 3-- 3------------------|
A| 3------------------------------| 1------------------------------|
E|---------------- 3--------------|---------------- 1--------------|
http://classicalguitartablature.blogspot.com/
E|-------------------- 0----------|--------------------------------|
B|------------ 1-------- 3---- 1--| 3------------------------------|
G|------ 0------------------------| 2-- 2-- 2-- 0---------- 0-- 0--|
D|---- 2--------------------------| 3------------------ 3----------|
A| 3-------------- 3--------------|--------------------------------|
E|--------------------------------| 1-------------- 1--------------|
http://classicalguitartablature.blogspot.com/
E|-------------------- 0----------|---------------------------- 0--|
B|-------- 1-- 3---------- 3-- 3--|---- 1-- 1-- 1---------- 1------|
G| 0-- 2------ 0------------------|---- 3-- 3-- 2------ 2----------|
D| 2---------- 0------------------|---- 3-- 3-- 3------------------|
A| 3------------------------------| 1------------------------------|
E|---------------- 3--------------|---------------- 1--------------|
http://classicalguitartablature.blogspot.com/
E|-------------------- 0----------|--------------------------------|
B|------------ 1-------- 3---- 1--| 3------------------ 1------ 3--|
G|------ 0------------------------| 2-- 2-- 2-- 0-- 2-- 0------ 5--|
D|---- 2--------------------------| 3-------------- 3-- 2------ 3--|
A| 3-------------- 3--------------|--------------------------------|
E|--------------------------------| 1-------------- 1---- 0--------|
http://classicalguitartablature.blogspot.com/
E|--------------------------------|-------- 3---------- 1------ 3--|
B|-------- 6-- 3-- 6---------- 3--| 6-- 3-- 3---- 5---- 0-------- 0|
G|-------- 5-- 5-- 5------ 5------| 4-- 4-- 4---- 4---- 0-------- 0|
D|---- 3-- 3-- 3-- 3-- 3----------| 3-- 3-------- 3----------------|
A| 5-------------- 5--------------|--------------------------------|
E|--------------------------------| 3-------------- 3---- 1--------|
http://classicalguitartablature.blogspot.com/
E|-------- 3-- 0-- 3---------- 3--|---- 3------ 1------ 0------ 1--|
B|------------ 0-- 0------ 0-- 2--|---- 2------ 2------ 2------ 1--|
G|---- 0-------------- 0------ 0--|---- 0------ 0------ 0------ 2--|
D|--------------------------------|--------------------------------|
A|--------------------------------| 0-------------- 0--------------|
E| 0-------------- 0--------------|--------------------------------|
http://classicalguitartablature.blogspot.com/
E|---- 1 1------------ 0------ 2--|---- 2---- 2-- 2---- 0---- 2----|
B|---- 1 1-------------- 3---- 1--|---- 1------ 1 1---- 1---- 1----|
G|---- 2 2---- 2-------------- 2--|---- 2------ 2 2---- 2---- 2----|
D|--------------------------------|--------------------------------|
A|--------------------------------|--------------------------------|
E| 1-------------- 1--------------| 2-------------- 2--------------|
http://classicalguitartablature.blogspot.com/
E| 3------------------------------| 5---------- 3------------------|
B| 0-------------------------- 0--| 3------ 5-- 3------------------|
G| 0---------- 0---------- 0------| 4------ 4-- 4------------------|
D|-------- 3---------- 3----------|-------- 5----------------------|
A|--------------------------------|----------------------------10--|
E| 3-------------- 3--------------| 3------------------------------|
http://classicalguitartablature.blogspot.com/
E|---------------------------- 1--|---- 0 0-------------------- 1--|
B|------13------10------------ 1--|---- 1 1-------------------- 1--|
G|------10------10--------12-- 0--|---- 0 0---------------- 0-- 1--|
D|------10------10----------------|------------ 2------ 2----------|
A|----10--------------------------| 3-------------- 3--------------|
E|--------------------------------|--------------------------------|
http://classicalguitartablature.blogspot.com/
E|---- 0-------------- 0----------|--------------------------------|
B|---- 0------ 3-------------- 3--| 3-- 1-- 1----------------------|
G|---- 1------ 1------------------| 2---------- 2---------- 2------|
D|-------- 0----------------------| 3------------------ 3------ 3--|
A|--------------------------------|--------------------------------|
E| 0-------------- 0--------------| 1-------------- 1--------------|
http://classicalguitartablature.blogspot.com/
E| 1-- 1-- 1---- 0------------ 1--|---- 0 0-------------------- 1--|
B| 0-- 0-- 0-- 0------ 3-- 1-- 1--|---- 1 1-------------------- 1--|
G| 0-- 0-- 0-- 0-------------- 0--|---- 0 0---------------- 0-- 1--|
D|--------------------------------|------------ 2------ 2----------|
A|--------------------------------| 3-------------- 3--------------|
E| 3-------------- 3--------------|--------------------------------|
http://classicalguitartablature.blogspot.com/
E|---- 0-------------- 0----------|--------------------------------|
B|---- 0------ 3-------------- 3--| 3-- 1-- 1----------------------|
G|---- 1------ 1------------------| 2---------- 2---------- 2------|
D|-------- 0----------------------| 3------------------ 3------ 3--|
A|--------------------------------|--------------------------------|
E| 0-------------- 0--------------| 1-------------- 1--------------|
http://classicalguitartablature.blogspot.com/
E| 1-- 1-- 1-- 0------ 0-- 1-- 3--|-------------------- 0-- 1------|
B| 0-- 0-- 0-- 0------ 0-- 0------|------------ 1------ 1-- 1-- 8--|
G| 0-- 0-- 0-- 0------ 0-- 0------|-------- 0---------- 0-- 0-- 7--|
D|--------------------------------|---- 2---------------------- 5--|
A|--------------------------------| 3-------------- 3--------------|
E| 3-------------- 3--------------|--------------------------------|
http://classicalguitartablature.blogspot.com/
E|---- 5--------------------------|--------------------------------|
B|-------- 8-- 6------ 5------ 6--|---- 6---- 6-- 6---- 5---- 3----|
G|-------------------- 7------ 5--|---- 5---- 5-- 5---- 5---- 5-- 5|
D|-------------------- 5------ 3--|---- 3---- 3-- 3---- 3---- 3----|
A|--------------------------------|--------------------------------|
E| 6-------------- 6--------------| 5------------ 5----------------|
http://classicalguitartablature.blogspot.com/
E|--------------------------------| 1-- 0-- 0----------------------|
B|--------------------------------| 1-- 1-- 1------------------ 3--|
G|------------ 5-------------- 5--| 0-- 0-- 0-------------- 0------|
D|------ 3------------ 3----------|------------ 2------ 2----------|
A|--------------------------------| 3-------------- 3--------------|
E| 4-------------- 4--------------|--------------------------------|
http://classicalguitartablature.blogspot.com/
E|--------------------------------|--------------------------------|
B|---- 3-- 3---- 3---- 1---- 0----| 3-- 1---------- 1--------------|
G|---- 0 0------ 0----------------| 2-- 2---------- 2---- 0---- 5--|
D|---- 0-- 0---- 0----------------| 3-- 3------ 3-- 3---- 2---- 7--|
A|--------------------------------|---------------------------- 5--|
E| 3-------------- 3--------------| 1-------------- 1------ 0------|
http://classicalguitartablature.blogspot.com/
E|--------------------------------| 1-- 0-- 0----------------------|
B|---- 1--------------------------| 1-- 1-- 1------------------ 3--|
G| 0---------- 0-------------- 0--| 0-- 0-- 0-------------- 0------|
D| 2------ 2------------ 0--------|------------ 2------ 2----------|
A| 3------------------------------| 3-------------- 3--------------|
E|---------------- 3--------------|--------------------------------|
http://classicalguitartablature.blogspot.com/
E|--------------------------------|--------------------------------|
B|---- 3-- 3---- 3---- 1---- 0----| 3-- 1---------- 1--------------|
G|---- 0 0------ 0----------------| 2-- 2---------- 2---- 0---- 5--|
D|---- 0-- 0---- 0----------------| 3-- 3------ 3-- 3---- 2---- 7--|
A|--------------------------------|---------------------------- 5--|
E| 3-------------- 3--------------| 1-------------- 1------ 0------|
http://classicalguitartablature.blogspot.com/
E|--------------------------------|--------------------------------|
B|---- 1--------------------------| 1---------- 1-- 1--------------|
G| 0---------- 0-------------- 0--| 0---------- 0-- 0--------------|
D| 2------ 2------------ 0--------| 2---------- 2-- 2---------- 2--|
A| 3------------------------------| 3------------ 3 3--------------|
E|---------------- 3--------------|---------------------------- 0--|
http://classicalguitartablature.blogspot.com/
E|--------------------------------|--------------------------------|
B|--------------------------------|--------------------------------|
G|--------------------------------|---------------------------- 0--|
D|---- 2------ 2-- 2--------------| 3---------- 3-- 3---------- 0--|
A|--------------------------------|--------------------------------|
E|---- 0------ 0-- 0--------------| 1---------- 1-- 1---------- 3--|
http://classicalguitartablature.blogspot.com/
E|--------------------------------|--------------------------------|
B|--------------------------------| 1---------- 1-- 1--------------|
G|---- 0------ 0-- 0--------------| 0---------- 0-- 0--------------|
D|---- 0------ 0-- 0--------------| 2---------- 2-- 2---------- 2--|
A|--------------------------------| 3------------ 3 3--------------|
E|---- 3------ 3-- 3--------------|---------------------------- 0--|
http://classicalguitartablature.blogspot.com/
E|--------------------------------|--------------------------------|
B|--------------------------------|--------------------------------|
G|--------------------------------|---------------------------- 0--|
D|---- 2------ 2-- 2--------------| 3---------- 3-- 3---------- 0--|
A|--------------------------------|--------------------------------|
E|---- 0------ 0-- 0--------------| 1---------- 1-- 1---------- 3--|
http://classicalguitartablature.blogspot.com/
E|--------------------------------|--------------------------------|
B|--------------------------------|--------------------------------|
G|---- 0------ 0-- 0--------------| 0------------------------------|
D|---- 0------ 0-- 0--------------| 2------------------------------|
A|--------------------------------| 3------------------------------|
E|---- 3------ 3-- 3--------------|--------------------------------|
http://classicalguitartablature.blogspot.com/

0 ความคิดเห็น:

แสดงความคิดเห็น