To celebrate the anniversary, I am giving you (finally...) : iPhone LickByNeck !!!!!!

Ghost Riders In The Sky (BASIC)

Vaughn Monroe's tune fingerstyle chord melody guitar BASIC arrangement played in the key of C#m.

Ghost Riders In The Sky - Vaughn Monroe-BASIC ARRANGEMENT played in the key of C#m.
http://classicalguitartablature.blogspot.com/
E|----------------|----------------|
B|----------------|----------------|
G|------ 6--------|------ 6--------|
D|---- 6----------|---- 6----------|
A| 4--------------| 4--------------|
E|-------- 4-- 7--|-------- 4-- 7--|
http://classicalguitartablature.blogspot.com/
E|----------------|----------------|
B|----------------|----------------|
G|------ 6--------|------ 6--------|
D|---- 6----------|---- 6---- 6----|
A| 4--------------| 4--------------|
E|-------- 4-- 7--|-------- 4-- 7--|
http://classicalguitartablature.blogspot.com/
http://classicalguitartablature.blogspot.com/
E|----------------|----------------|
B|------------ 4--| 5-- 5 5--------|
G| 6-- 4-- 6------| 6-- 6 6-- 6----|
D| 6-- 6-- 6------|------ 6--------|
A| 4--------------| 4--------------|
E|-------- 4------|-------- 4------|
http://classicalguitartablature.blogspot.com/
E|----------------|----------------|
B| 0-- 0-- 0------| 0--------------|
G| 1-- 1------ 1--|------ 1------ 1|
D| 2-- 2----------|---- 2------ 2--|
A|-------- 2------|-------- 2------|
E| 0--------------| 0--------------|
http://classicalguitartablature.blogspot.com/
E|----------------|----------------|
B|----------------|----------------|
G|------ 1------ 1|---- 1------ 1--|
D|---- 2------ 2--|-- 2------------|
A|-------- 2------|-------- 2------|
E| 0--------------| 0--------------|
http://classicalguitartablature.blogspot.com/
E|----------------|-------------- 4|
B|------------ 4 5|---- 5 5---- 7 5|
G| 6-- 4-- 6---- 6|---- 6----------|
D| 6------ 6------|------ 6--------|
A| 4--------------| 4--------------|
E|-------- 4------|-------- 4------|
http://classicalguitartablature.blogspot.com/
E|---- 4-- 4------| 4--------------|
B|---- 5 5---- 5--| 5--------------|
G|---- 4------ 4--|------ 4------ 4|
D|------------ 6--|---- 6------ 6--|
A|----------------|----------------|
E| 0------ 7------| 0------ 7------|
http://classicalguitartablature.blogspot.com/
E|----------------|---------- 4----|
B|----------------|---------- 5-- 9|
G|------ 4---- 4--|---- 4---- 4-- 9|
D|-- 6------ 6----|-- 6----------11|
A|----------------|----------------|
E| 0------ 7---- 0|------ 7--------|
http://classicalguitartablature.blogspot.com/
E|-- 9-- 9---- 9 9|----------------|
B|------ 9-- 9-- 9|---- 9 9---- 9--|
G|------ 9--------|---- 9 9---- 9--|
D|----------------|----11--11------|
A|------11--------|--------11------|
E| 9------------ 9|----------------|
http://classicalguitartablature.blogspot.com/
E| 4-- 4-- 4------|----------------|
B| 5-- 5-- 5-- 5--|----------------|
G| 6-- 6----------| 6---------- 6--|
D|----------------|---- 6----------|
A| 4--------------| 4--------------|
E|-------- 4------|-------- 4------|
http://classicalguitartablature.blogspot.com/
E|----------------| 0-- 0-- 0------|
B|----------------| 2-- 2-- 2------|
G| 2-- 2-- 2-- 2--| 2-- 2-------- 2|
D| 2-- 2-- 2------|------------ 2--|
A| 0--------------| 0--------------|
E|-------- 0------|-------- 0------|
http://classicalguitartablature.blogspot.com/
E|----------------|------------ 0--|
B|----------------|----------------|
G|------ 2------ 2|---- 2----------|
D|---- 2------ 2--|---- 2----------|
A| 0--------------| 0--------------|
E|-------- 0------|-------- 0------|
http://classicalguitartablature.blogspot.com/
E|----------------|----------------|
B| 5-- 2-- 2-- 2--| 2--------------|
G| 2-- 2-- 2-- 2--| 4---- 4------ 4|
D| 2-- 2-- 2-- 2--|---- 2------ 2--|
A|-------- 4------| 4--------------|
E| 2--------------|-------- 4------|
http://classicalguitartablature.blogspot.com/
E|----------------|----------------|
B|----------------|----------------|
G|------ 4------ 4|---- 6------ 6--|
D|---- 2------ 2--|---- 6---- 6----|
A| 4------------ 4|----------------|
E|-------- 4------|------ 4--------|
http://classicalguitartablature.blogspot.com/
E|----------------|----------------|
B|----------------|------------ 4--|
G|---- 6----------| 6-- 4-- 6------|
D|-- 6-------- 6--| 6-- 6-- 6------|
A| 4--------------| 4--------------|
E|------ 4--------|-------- 4------|
http://classicalguitartablature.blogspot.com/
E|----------------|----------------|
B| 5-- 5 5--------| 0-- 0-- 0------|
G| 6-- 6 6-- 6----| 1-- 1------ 1--|
D|------ 6--------| 2-- 2----------|
A| 4--------------|-------- 2------|
E|-------- 4------| 0--------------|
http://classicalguitartablature.blogspot.com/
E|----------------|----------------|
B| 0--------------|----------------|
G|------ 1------ 1|------ 1------ 1|
D|---- 2------ 2--|---- 2------ 2--|
A|-------- 2------|-------- 2------|
E| 0--------------| 0--------------|
http://classicalguitartablature.blogspot.com/
E|----------------|----------------|
B|----------------|------------ 4 5|
G|---- 1------ 1--| 6-- 4-- 6---- 6|
D|-- 2------------| 6------ 6------|
A|-------- 2------| 4--------------|
E| 0--------------|-------- 4------|
http://classicalguitartablature.blogspot.com/
E|-------------- 4|---- 4-- 4------|
B|---- 5 5---- 7 5|---- 5 5---- 5--|
G|---- 6----------|---- 4------ 4--|
D|------ 6--------|------------ 6--|
A| 4--------------|----------------|
E|-------- 4------| 0------ 7------|
http://classicalguitartablature.blogspot.com/
E| 4--------------|----------------|
B| 5--------------|----------------|
G|------ 4------ 4|------ 4---- 4--|
D|---- 6------ 6--|-- 6------ 6----|
A|----------------|----------------|
E| 0------ 7------| 0------ 7---- 0|
http://classicalguitartablature.blogspot.com/
E|---------- 4----|-- 9-- 9---- 9 9|
B|---------- 5-- 9|------ 9-- 9-- 9|
G|---- 4---- 4-- 9|------ 9--------|
D|-- 6----------11|----------------|
A|----------------|------11--------|
E|------ 7--------| 9------------ 9|
http://classicalguitartablature.blogspot.com/
E|----------------| 4-- 4-- 4------|
B|---- 9 9---- 9--| 5-- 5-- 5-- 5--|
G|---- 9 9---- 9--| 6-- 6----------|
D|----11--11------|----------------|
A|--------11------| 4--------------|
E|----------------|-------- 4------|
http://classicalguitartablature.blogspot.com/
E|----------------|----------------|
B|----------------|----------------|
G| 6---------- 6--| 2-- 2-- 2-- 2--|
D|---- 6----------| 2-- 2-- 2------|
A| 4--------------| 0--------------|
E|-------- 4------|-------- 0------|
http://classicalguitartablature.blogspot.com/
E| 0-- 0-- 0------|----------------|
B| 2-- 2-- 2------|----------------|
G| 2-- 2-------- 2|------ 2------ 2|
D|------------ 2--|---- 2------ 2--|
A| 0--------------| 0--------------|
E|-------- 0------|-------- 0------|
http://classicalguitartablature.blogspot.com/
E|------------ 0--|----------------|
B|----------------| 5-- 2-- 2-- 2--|
G|---- 2----------| 2-- 2-- 2-- 2--|
D|---- 2----------| 2-- 2-- 2-- 2--|
A| 0--------------|-------- 4------|
E|-------- 0------| 2--------------|
http://classicalguitartablature.blogspot.com/
E|----------------|----------------|
B| 2--------------|----------------|
G| 4---- 4------ 4|------ 4------ 4|
D|---- 2------ 2--|---- 2------ 2--|
A| 4--------------| 4------------ 4|
E|-------- 4------|-------- 4------|
http://classicalguitartablature.blogspot.com/
E|----------------|----------------|
B|----------------|-------------- 9|
G|---- 6------ 6--|---- 6-------- 9|
D|---- 6---- 6----|-- 6-------- 6 9|
A|----------------| 4--------------|
E|------ 4--------|------ 4--------|
http://classicalguitartablature.blogspot.com/
E|-------------- 7|----------------|
B|---- 9---- 9-- 9|----------------|
G|---- 9---- 9----| 9---- 9------ 9|
D|---- 9----------|---- 9------ 9--|
A|----------------|----------------|
E| 0------ 7------| 0------ 7------|
http://classicalguitartablature.blogspot.com/
E|----------------|----------------|
B|----------------|----------------|
G|------ 9------ 9|------ 9--------|
D|---- 9------ 9--|-- 9------ 9----|
A|----------------|----------------|
E| 0------ 6------| 0------ 7------|
http://classicalguitartablature.blogspot.com/
E| 9-- 9------ 9--| 4--------------|
B| 9-- 9------ 9--| 5--------------|
G|---- 9------ 9--|------ 6------ 6|
D|----------------|---- 6------ 6--|
A|--------11------| 4--------------|
E| 9--------------|-------- 4------|
http://classicalguitartablature.blogspot.com/
E|----------------|----------------|
B|----------------|----------------|
G|------ 6------ 6|------ 6---- 6--|
D|---- 6------ 6--|---- 6------ 6--|
A| 4--------------| 4--------------|
E|-------- 4------|-------- 4------|
http://classicalguitartablature.blogspot.com/
E|----------------|----------------|
B|----------------|----------------|
G| 2-- 2----------| 2------ 2------|
D|-- 2-------- 2--|---- 2------ 2--|
A| 0--------------| 0--------------|
E|-------- 0------|-------- 0------|
http://classicalguitartablature.blogspot.com/
E|----------------|----------------|
B| 5------------ 5|-------------- 2|
G|---- 2------ 2--|---- 2------ 2--|
D|-- 2------ 2----|---- 2---- 2----|
A|-------- 4------|------ 4------ 4|
E| 2------------ 2|----------------|
http://classicalguitartablature.blogspot.com/
E|----------------|----------------|
B|----------------|----------------|
G|---- 4------ 4--|---- 4------ 4--|
D|-- 2------ 2----|-- 2------ 2----|
A|----------------| 4------------ 4|
E|------ 4--------|------ 4--------|
http://classicalguitartablature.blogspot.com/
E|----------------|----------------|
B|----------------|-------------- 9|
G|---- 6------ 6--|---- 6-------- 9|
D|---- 6---- 6----|-- 6-------- 6 9|
A|----------------| 4--------------|
E|------ 4--------|------ 4--------|
http://classicalguitartablature.blogspot.com/
E|-------------- 7|----------------|
B|---- 9---- 9-- 9|----------------|
G|---- 9---- 9----| 9---- 9------ 9|
D|---- 9----------|---- 9------ 9--|
A|----------------|----------------|
E| 0------ 7------| 0------ 7------|
http://classicalguitartablature.blogspot.com/
E|----------------|----------------|
B|----------------|----------------|
G|------ 9------ 9|------ 9--------|
D|---- 9------ 9--|-- 9------ 9----|
A|----------------|----------------|
E| 0------ 6------| 0------ 7------|
http://classicalguitartablature.blogspot.com/
E| 9-- 9------ 9--| 4--------------|
B| 9-- 9------ 9--| 5--------------|
G|---- 9------ 9--|------ 6------ 6|
D|----------------|---- 6------ 6--|
A|--------11------| 4--------------|
E| 9--------------|-------- 4------|
http://classicalguitartablature.blogspot.com/
E|----------------|----------------|
B|----------------|----------------|
G|------ 6------ 6|------ 6---- 6--|
D|---- 6------ 6--|---- 6------ 6--|
A| 4--------------| 4--------------|
E|-------- 4------|-------- 4------|
http://classicalguitartablature.blogspot.com/
E|----------------|----------------|
B|----------------|----------------|
G| 2-- 2----------| 2------ 2------|
D|-- 2-------- 2--|---- 2------ 2--|
A| 0--------------| 0--------------|
E|-------- 0------|-------- 0------|
http://classicalguitartablature.blogspot.com/
E|----------------|----------------|
B| 5------------ 5|-------------- 2|
G|---- 2------ 2--|---- 2------ 2--|
D|-- 2------ 2----|---- 2---- 2----|
A|-------- 4------|------ 4------ 4|
E| 2------------ 2|----------------|
http://classicalguitartablature.blogspot.com/
E|----------------|----------------|
B|----------------|----------------|
G|---- 4------ 4--|---- 4------ 4--|
D|-- 2------ 2----|-- 2------ 2----|
A|----------------| 4------------ 4|
E|------ 4--------|------ 4--------|
http://classicalguitartablature.blogspot.com/
E|----------------|----------------|
B|----------------|----------------|
G|---- 6------ 6--|---- 6----------|
D|---- 6---- 6----|-- 6-------- 6--|
A|----------------| 4--------------|
E|------ 4--------|------ 4--------|
http://classicalguitartablature.blogspot.com/
E|----------------|----------------|
B|----------------|----------------|
G| 2-- 2----------| 2------ 2------|
D|-- 2-------- 2--|---- 2------ 2--|
A| 0--------------| 0--------------|
E|-------- 0------|-------- 0------|
http://classicalguitartablature.blogspot.com/
E|----------------|-------------- 7|
B| 5------------ 5|-------------- 9|
G|---- 2------ 2--|---- 2------ 2--|
D|-- 2------ 2----|---- 2---- 2----|
A|-------- 4------|------ 4--------|
E| 2------------ 2|----------------|
http://classicalguitartablature.blogspot.com/
E|----------------|----------------|
B|----------------|----------------|
G|---- 9------ 9--|------ 9---- 9--|
D|---- 9---- 9----|-- 9------ 9----|
A|----------------|----------------|
E| 0------ 7---- 0|------ 7------ 0|
http://classicalguitartablature.blogspot.com/
E|----------------|----------------|
B|----------------|----------------|
G|----------------|----------------|
D|----------------|----------------|
A|----------------|----------------|
E|----------------|----------------|
http://classicalguitartablature.blogspot.com/

0 ความคิดเห็น:

แสดงความคิดเห็น