To celebrate the anniversary, I am giving you (finally...) : iPhone LickByNeck !!!!!!

I Can See Clearly Now (BASIC)

Johnny Nash's tune fingerstyle chord melody guitar BASIC arrangement played in the key of D.

I Can See Clearly Now - Johnny Nash - BASIC ARRANGEMENT played in the key of D.
http://classicalguitartablature.blogspot.com/
E|--------------------------------|--------------------------------|
B|--------------------------------| 3---- 3---- 3------------------|
G|--------------------------------| 2---- 2---- 2------------------|
D|--------------------------------| 4---- 4---- 4------------------|
A|--------------------------------| 5---------- 5-- 0-- 0-- 5-- 0--|
E| 2-- 3-- 5----------------------|--------------------------------|
http://classicalguitartablature.blogspot.com/
E|--------------------------------|-------------------- 0-- 2-- 3--|
B| 3---- 3---- 3------------------|---------------- 3-- 3-- 3-- 3--|
G| 2---- 2---- 2------------------| 2---- 2---- 2-- 2------ 2-- 0--|
D| 4---- 4---- 4------------------| 4---- 4---- 4-- 4-------- 0----|
A| 5---------- 5-- 0-- 0-- 5-- 0--| 5---------- 5------------------|
E|--------------------------------|--------------------------------|
http://classicalguitartablature.blogspot.com/
http://classicalguitartablature.blogspot.com/
E|---- 2------ 0-------------- 2--|--------------------------------|
B|---- 3------ 3------ 3------ 3--|---- 3--------------------------|
G|---- 0------ 0------ 0------ 2--|---- 2------ 2------------------|
D|-------------------- 0----------|---- 4------ 4------------------|
A|--------------------------------| 5-------------- 0-- 0-- 5-- 0--|
E| 3-------------- 3--------------|--------------------------------|
http://classicalguitartablature.blogspot.com/
E|--------------------------------|-------------------- 0-- 2-- 3--|
B|--------------------------------|---------------- 3-- 3-- 3-- 3--|
G| 2---- 2---------- 2------------| 2---- 2---- 2-- 2-- 1-- 2-- 0--|
D| 4---- 4---- 4------------------| 4---- 4---- 4-- 4--------------|
A| 5---------- 5-- 0-- 0-- 5 0----| 5---------- 5------------------|
E|--------------------------------|--------------------------------|
http://classicalguitartablature.blogspot.com/
E|-------- 3-- 3------ 2-- 0------|--------------------------------|
B|-------- 3-- 3------ 3------ 3--| 2-- 3-- 5----------------------|
G|---- 0-- 0-- 0------ 0----------| 0-- 0-- 0----------------------|
D|--------------------------------| 2-- 4-- 5----------------------|
A|--------------------------------| 0------------ 0-------- 0------|
E| 3-------------- 3--------------|---------------- 0-- 0------ 0--|
http://classicalguitartablature.blogspot.com/
E|--------------------------------|-------------------- 0-- 2-- 3--|
B| 2------------------------------|---------------- 3-- 3-- 3-- 3--|
G| 0------ 0----------------------| 2---- 2---- 2-- 2------ 2-- 0--|
D| 2------ 2----------------------| 4---- 4---- 4-- 4-------- 0----|
A| 0------------ 0-------- 0------| 5---------- 5------------------|
E|---------------- 0-- 0------ 0--|--------------------------------|
http://classicalguitartablature.blogspot.com/
E|---- 2------ 0-------------- 2--|--------------------------------|
B|---- 3------ 3------ 3------ 3--|---- 3--------------------------|
G|---- 0------ 0------ 0------ 2--|---- 2------ 2------------------|
D|-------------------- 0----------|---- 4------ 4------------------|
A|--------------------------------| 5-------------- 0-- 0-- 5-- 0--|
E| 3-------------- 3--------------|--------------------------------|
http://classicalguitartablature.blogspot.com/
E|--------------------------------|--------------------------------|
B|---------------------------- 1--|------ 1---- 1------ 1------ 0--|
G| 2---- 2---- 2-- 2-- 2-- 2------|------ 0---- 0------ 0------ 0--|
D| 4---- 4---- 4-- 4-- 4-- 4------|------ 2------------ 2------ 0--|
A| 5---------- 5-- 0-- 0-- 5-- 0--| 3---------- 3------------------|
E|--------------------------------|--------------------------------|
http://classicalguitartablature.blogspot.com/
E|------------------------ 0------|--------------------------------|
B|------ 0---- 0-- 0-- 3------ 3--|--------------------------------|
G|------ 0---- 0-- 0-- 0------ 2--|------ 2-------- 2--------------|
D|------ 0---- 0-- 0---------- 4--|------ 4---- 4------------------|
A| 2---------- 2------------------| 5---------- 5-- 0-- 0-- 5-- 0--|
E|---------------- 3--------------|--------------------------------|
http://classicalguitartablature.blogspot.com/
E|--------------------------------|--------------------------------|
B|---------------------------- 1--|------ 1---- 1------ 1------ 0--|
G| 2---- 2---- 2-- 2-- 2-- 2------|------ 0---- 0------ 0------ 0--|
D| 4---- 4---- 4-- 4-- 4-- 4------|------ 2------------ 2------ 0--|
A| 5---------- 5-- 0-- 0-- 5-- 0--| 3---------- 3------------------|
E|--------------------------------|--------------------------------|
http://classicalguitartablature.blogspot.com/
E|------------------------ 0------|--------------------------------|
B|------ 0---- 0-- 0-- 3------ 3--|--------------------------------|
G|------ 0---- 0-- 0-- 0------ 2--|------ 2-------- 2--------------|
D|------ 0---- 0-- 0---------- 4--|------ 4---- 4------------------|
A| 2---------- 2------------------| 5---------- 5-- 0-- 0-- 5-- 0--|
E|---------------- 3--------------|--------------------------------|
http://classicalguitartablature.blogspot.com/
E|--------------------------------|--------------------------------|
B|--------------------------------|------------10--10--10--10--10--|
G| 2---- 2---------- 2------------|------10----10--10--10--10--10--|
D| 4---- 4---- 4------------------|------10----10--10--10--10--10--|
A| 5---------- 5-- 0-- 0-- 5 0----| 8---------- 8------------------|
E|--------------------------------|--------------------------------|
http://classicalguitartablature.blogspot.com/
E|---------------------------- 3--|------------ 0------------------|
B|------------10------ 8------ 1--|------ 1---- 1------------------|
G|----10------10----------10-- 0--|------ 0---- 0---------------- 0|
D|----10------10------------------|------ 2---------------- 2---- 2|
A| 8-------------- 8--------------| 3---------- 3---------- 3------|
E|--------------------------------|---------------- 3-- 3------ 3--|
http://classicalguitartablature.blogspot.com/
E|--------------------------------|--------------------------------|
B|--------------------------------|------------10--10--10--10--10--|
G|------ 0---- 0------------------|------10----10--10--10--10--10--|
D|------ 2---- 2------------------|------10----10--10--10--10--10--|
A| 3---------- 3---------- 3------| 8---------- 8-- 8--------------|
E|---------------- 3-- 3------ 3--|--------------------------------|
http://classicalguitartablature.blogspot.com/
E|--------------------------------| 5---- 5-- 5--------------------|
B|------10----10--10-- 8----------| 5---- 5---- 5---------- 5------|
G|------10----10--10--------10----| 6---- 6---- 6---------- 6------|
D|------10----10--10--------------|-------------------- 7------ 7--|
A| 8---------- 8-- 8--------------| 0---------- 0------------------|
E|--------------------------------|--------------------------------|
http://classicalguitartablature.blogspot.com/
E| 4------------------------------| 3------------------------------|
B| 5------------------------------| 3------------------------------|
G| 4---- 4---- 4---------- 4------| 0---- 0---- 0---------- 0------|
D|------ 6---- 6------ 6------ 6--|------ 0---- 0------ 0------ 0--|
A|--------------------------------|--------------------------------|
E| 4---------- 4------------------| 3---------- 3------------------|
http://classicalguitartablature.blogspot.com/
E| 4------------------------------| 3------------------------------|
B| 5------------------------------| 3------------------------------|
G| 4---- 4---- 4---------- 4------| 0---- 0---- 0---------- 0------|
D|------ 6---- 6------ 6------ 6--|------ 0---- 0------ 0------ 0--|
A|--------------------------------|--------------------------------|
E| 4---------- 4------------------| 3---------- 3------------------|
http://classicalguitartablature.blogspot.com/
E| 3------------------------------| 2------------------------------|
B| 1---------- 1-------- 1--------| 3---------- 3---------- 3------|
G| 0------ 0---------- 0----------| 2------ 2---------- 2------ 2--|
D|---- 2---------- 2---------- 2--|---- 4---------- 4--------------|
A| 3------------------------------| 2------------------------------|
E|--------------------------------|--------------------------------|
http://classicalguitartablature.blogspot.com/
E|--------------------------------|--------------------------------|
B| 5---- 5---- 5------------------|------ 5---- 5------------------|
G| 6---- 6---- 6------------------| 6---- 6---- 6------------------|
D| 7---- 7---- 7------------------| 7---- 7---- 7------------------|
A|--------------------------------|---------------- 0--------------|
E| 5---------- 5-- 0-- 0-- 5-- 0--| 5---------- 5-- 0------ 5-- 0--|
http://classicalguitartablature.blogspot.com/
E|-------------------- 0-- 2-- 3--|---- 2------ 0-------------- 2--|
B|---------------- 3-- 3-- 3-- 3--|---- 3------ 3------ 3------ 3--|
G| 2---- 2---- 2-- 2------ 2-- 0--|---- 0------ 0------ 0------ 2--|
D| 4---- 4---- 4-- 4-------- 0----|-------------------- 0----------|
A| 5---------- 5------------------|--------------------------------|
E|--------------------------------| 3-------------- 3--------------|
http://classicalguitartablature.blogspot.com/
E|--------------------------------|--------------------------------|
B|---- 3--------------------------|--------------------------------|
G|---- 2------ 2------------------| 2---- 2---------- 2------------|
D|---- 4------ 4------------------| 4---- 4---- 4------------------|
A| 5-------------- 0-- 0-- 5-- 0--| 5---------- 5-- 0-- 0-- 5 0----|
E|--------------------------------|--------------------------------|
http://classicalguitartablature.blogspot.com/
E|-------------------- 0-- 2-- 3--|-------- 3-- 3------ 2-- 0------|
B|---------------- 3-- 3-- 3-- 3--|-------- 3-- 3------ 3------ 3--|
G| 2---- 2---- 2-- 2-- 1-- 2-- 0--|---- 0-- 0-- 0------ 0----------|
D| 4---- 4---- 4-- 4--------------|--------------------------------|
A| 5---------- 5------------------|--------------------------------|
E|--------------------------------| 3-------------- 3--------------|
http://classicalguitartablature.blogspot.com/
E|--------------------------------|--------------------------------|
B| 2-- 3-- 5----------------------| 2------------------------------|
G| 0-- 0-- 0----------------------| 0------ 0----------------------|
D| 2-- 4-- 5----------------------| 2------ 2----------------------|
A| 0------------ 0-------- 0------| 0------------ 0-------- 0------|
E|---------------- 0-- 0------ 0--|---------------- 0-- 0------ 0--|
http://classicalguitartablature.blogspot.com/
E|-------------------- 0-- 2-- 3--|---- 2------ 0-------------- 2--|
B|---------------- 3-- 3-- 3-- 3--|---- 3------ 3------ 3------ 3--|
G| 2---- 2---- 2-- 2------ 2-- 0--|---- 0------ 0------ 0------ 2--|
D| 4---- 4---- 4-- 4-------- 0----|-------------------- 0----------|
A| 5---------- 5------------------|--------------------------------|
E|--------------------------------| 3-------------- 3--------------|
http://classicalguitartablature.blogspot.com/
E|--------------------------------|--------------------------------|
B|---- 3--------------------------|---------------------------- 1--|
G|---- 2------ 2------------------| 2---- 2---- 2-- 2-- 2-- 2------|
D|---- 4------ 4------------------| 4---- 4---- 4-- 4-- 4-- 4------|
A| 5-------------- 0-- 0-- 5-- 0--| 5---------- 5-- 0-- 0-- 5-- 0--|
E|--------------------------------|--------------------------------|
http://classicalguitartablature.blogspot.com/
E|--------------------------------|------------------------ 0------|
B|------ 1---- 1------ 1------ 0--|------ 0---- 0-- 0-- 3------ 3--|
G|------ 0---- 0------ 0------ 0--|------ 0---- 0-- 0-- 0------ 2--|
D|------ 2------------ 2------ 0--|------ 0---- 0-- 0---------- 4--|
A| 3---------- 3------------------| 2---------- 2------------------|
E|--------------------------------|---------------- 3--------------|
http://classicalguitartablature.blogspot.com/
E|--------------------------------|--------------------------------|
B|--------------------------------|---------------------------- 1--|
G|------ 2-------- 2--------------| 2---- 2---- 2-- 2-- 2-- 2------|
D|------ 4---- 4------------------| 4---- 4---- 4-- 4-- 4-- 4------|
A| 5---------- 5-- 0-- 0-- 5-- 0--| 5---------- 5-- 0-- 0-- 5-- 0--|
E|--------------------------------|--------------------------------|
http://classicalguitartablature.blogspot.com/
E|--------------------------------|------------------------ 0------|
B|------ 1---- 1------ 1------ 0--|------ 0---- 0-- 0-- 3------ 3--|
G|------ 0---- 0------ 0------ 0--|------ 0---- 0-- 0-- 0------ 2--|
D|------ 2------------ 2------ 0--|------ 0---- 0-- 0---------- 4--|
A| 3---------- 3------------------| 2---------- 2------------------|
E|--------------------------------|---------------- 3--------------|
http://classicalguitartablature.blogspot.com/
E|--------------------------------|--------------------------------|
B|--------------------------------|---------------------------- 1--|
G|------ 2-------- 2--------------| 2---- 2---- 2-- 2-- 2-- 2------|
D|------ 4---- 4------------------| 4---- 4---- 4-- 4-- 4-- 4------|
A| 5---------- 5-- 0-- 0-- 5-- 0--| 5---------- 5-- 0-- 0-- 5-- 0--|
E|--------------------------------|--------------------------------|
http://classicalguitartablature.blogspot.com/
E|--------------------------------|--------------------------------|
B|-------------- 1---------- 1----|-- 0------------ 0-- 0---- 3----|
G|-------- 0------------ 0------ 0|-- 0-------- 0------------------|
D|---- 2------------ 2------------|-------- 0----------------------|
A| 3------------------------------|-- 2----------------------------|
E|--------------------------------|--------------------------------|
http://classicalguitartablature.blogspot.com/
E| 0------------------------------|--------------------------------|
B|--------------------------------|------------ 3------------------|
G|--------------------------------|---------- 2--------------------|
D|--------------------------------|-------- 4----------------------|
A|--------------------------------|-------- 0----------------------|
E|--------------------------------|--------------------------------|
http://classicalguitartablature.blogspot.com/

0 ความคิดเห็น:

แสดงความคิดเห็น