To celebrate the anniversary, I am giving you (finally...) : iPhone LickByNeck !!!!!!

Lambada (BASIC)

Kaoma's tune fingerstyle chord melody guitar BASIC arrangement played in the key of Em.

Lambada - Kaoma - BASIC ARRANGEMENT played in the key of Em.
http://classicalguitartablature.blogspot.com/
E|--------------------------------|--------------------------------|
B|---- 0-------------- 0----------|---- 0-------------- 0----------|
G|---- 0-------------- 0----------|---- 0-------------- 0----------|
D|---- 2-------------- 2----------|---- 2-------------- 2----------|
A|---------- 2---------------- 2--|---------- 2---------------- 2--|
E| 0---- 3-------- 0------ 3------| 0------ 3---- 0------ 3--------|
http://classicalguitartablature.blogspot.com/
E|--------------------------------|--------------------------------|
B|---- 0-------------- 0----------|---- 0---------------- 0---- 0--|
G|---- 0-------------- 0----------|---- 0---------------- 0---- 0--|
D|---- 2-------------- 2----------|---- 2---------------- 2---- 2--|
A|------------ 2-------------- 2--|------------ 2-------------- 2--|
E| 0------ 3------ 0------ 3------| 0------ 3------ 0------ 3------|
http://classicalguitartablature.blogspot.com/
http://classicalguitartablature.blogspot.com/
E| 7-------- 5-- 3---- 2-- 0------| 0-- 3-- 2-- 0------ 0----------|
B| 0-------------- 0---- 0--------| 1-------------- 3------ 0------|
G|---- 0---------- 0--------------| 0-------------- 2---------- 2--|
D|--------------------------------|---------------- 4--------------|
A|------------ 2-------------- 2--| 3-------------- 5---------- 0--|
E| 0------ 3------ 0------ 3------|-------- 0-- 3------------ 2----|
http://classicalguitartablature.blogspot.com/
E|--------------------------------| 7-------- 5-- 3---- 2-- 0------|
B| 0-------------------------- 0--| 0-------------- 0---- 0--------|
G|---------------- 0---------- 0--|---- 0---------- 0--------------|
D|------ 0-------------- 0--------|--------------------------------|
A|-------- 2-- 5---------- 2-- 5--|------------ 2-------------- 2--|
E| 3-------------- 3--------------| 0------ 3------ 0------ 3------|
http://classicalguitartablature.blogspot.com/
E| 0-- 3-- 2-- 0------ 0----------|--------------------------------|
B| 1-------------- 3------ 0------| 0-------------------------- 0--|
G| 0-------------- 2---------- 2--|---------------- 0---------- 0--|
D|---------------- 4--------------|------ 0-------------- 0--------|
A| 3-------------- 5---------- 0--|-------- 2-- 5---------- 2-- 5--|
E|-------- 0-- 3------------ 2----| 3-------------- 3--------------|
http://classicalguitartablature.blogspot.com/
E| 5-- 5-- 5-------------------- 7|------ 5------------------------|
B| 5------ 5---------------- 5-- 5|------ 5-------------- 5-- 8----|
G| 5------ 5-- 5-- 5---- 5-- 5----|---- 5------ 5-------- 5-- 5----|
D|------------ 7------ 7----------|-------------------- 7 7---- 7--|
A| 0---------- 7-- 0---------- 7--| 0-------- 7---- 0---------- 7--|
E|-------- 8------------ 8--------|------ 8-------------- 8--------|
http://classicalguitartablature.blogspot.com/
E| 2---- 0-------------- 0--------| 0------------------------------|
B| 3---- 3-- 3---- 3---------- 3--|--------------------------------|
G| 2---- 2-- 2---- 2--------------|---------------- 0--------------|
D|---- 4---- 0---- 4--------------|---- 2-------------- 2----------|
A| 5---------- 0-- 5---------- 0--|------------ 2-------------- 2--|
E|------ 2---------------- 2------| 0------ 3------ 0------ 3------|
http://classicalguitartablature.blogspot.com/
E| 5-- 5-- 5-------------------- 7|------ 5------------------------|
B| 5------ 5---------------- 5-- 5|------ 5-------------- 5-- 8----|
G| 5------ 5-- 5-- 5---- 5-- 5----|---- 5------ 5-------- 5-- 5----|
D|------------ 7------ 7----------|-------------------- 7 7---- 7--|
A| 0---------- 7-- 0---------- 7--| 0-------- 7---- 0---------- 7--|
E|-------- 8------------ 8--------|------ 8-------------- 8--------|
http://classicalguitartablature.blogspot.com/
E| 2---- 0-------------- 2---- 5--| 3 2 0--------------------------|
B| 3---- 3-- 3---- 3---- 3--------|---------------------------- 0--|
G| 2---- 2-- 2---- 2--------------|-------------------- 0----------|
D|---- 4---- 0-------- 4----------|-------------------- 2----------|
A| 5---------- 0-- 5---------- 0--|------------ 2-------------- 2--|
E|------ 2-------------- 2--------| 0------ 3------ 0------ 3------|
http://classicalguitartablature.blogspot.com/
E| 7-------- 5-- 3---- 2-- 0------| 0-- 3-- 2-- 0------ 0----------|
B| 0-------------- 0---- 0--------| 1-------------- 3------ 0------|
G|---- 0---------- 0--------------| 0-------------- 2---------- 2--|
D|--------------------------------|---------------- 4--------------|
A|------------ 2-------------- 2--| 3-------------- 5---------- 0--|
E| 0------ 3------ 0------ 3------|-------- 0-- 3------------ 2----|
http://classicalguitartablature.blogspot.com/
E|--------------------------------| 7-------- 5-- 3---- 2-- 0------|
B| 0-------------------------- 0--| 0-------------- 0---- 0--------|
G|---------------- 0---------- 0--|---- 0---------- 0--------------|
D|------ 0-------------- 0--------|--------------------------------|
A|-------- 2-- 5---------- 2-- 5--|------------ 2-------------- 2--|
E| 3-------------- 3--------------| 0------ 3------ 0------ 3------|
http://classicalguitartablature.blogspot.com/
E| 0-- 3-- 2-- 0------ 0----------|--------------------------------|
B| 1-------------- 3------ 0------| 0-------------------------- 0--|
G| 0-------------- 2---------- 2--|---------------- 0---------- 0--|
D|---------------- 4--------------|------ 0-------------- 0--------|
A| 3-------------- 5---------- 0--|-------- 2-- 5---------- 2-- 5--|
E|-------- 0-- 3------------ 2----| 3-------------- 3--------------|
http://classicalguitartablature.blogspot.com/
E| 5-- 5-- 5-------------------- 7|------ 5------------------------|
B| 5------ 5---------------- 5-- 5|------ 5-------------- 5-- 8----|
G| 5------ 5-- 5-- 5---- 5-- 5----|---- 5------ 5-------- 5-- 5----|
D|------------ 7------ 7----------|-------------------- 7 7---- 7--|
A| 0---------- 7-- 0---------- 7--| 0-------- 7---- 0---------- 7--|
E|-------- 8------------ 8--------|------ 8-------------- 8--------|
http://classicalguitartablature.blogspot.com/
E| 2---- 0-------------- 0--------| 0------------------------------|
B| 3---- 3-- 3---- 3---------- 3--|--------------------------------|
G| 2---- 2-- 2---- 2--------------|---------------- 0--------------|
D|---- 4---- 0---- 4--------------|---- 2-------------- 2----------|
A| 5---------- 0-- 5---------- 0--|------------ 2-------------- 2--|
E|------ 2---------------- 2------| 0------ 3------ 0------ 3------|
http://classicalguitartablature.blogspot.com/
E| 5-- 5-- 5-------------------- 7|------ 5------------------------|
B| 5------ 5---------------- 5-- 5|------ 5-------------- 5-- 8----|
G| 5------ 5-- 5-- 5---- 5-- 5----|---- 5------ 5-------- 5-- 5----|
D|------------ 7------ 7----------|-------------------- 7 7---- 7--|
A| 0---------- 7-- 0---------- 7--| 0-------- 7---- 0---------- 7--|
E|-------- 8------------ 8--------|------ 8-------------- 8--------|
http://classicalguitartablature.blogspot.com/
E| 2---- 0-------------- 2---- 5--| 3 2 0--------------------------|
B| 3---- 3-- 3---- 3---- 3--------|---------------------------- 0--|
G| 2---- 2-- 2---- 2--------------|-------------------- 0----------|
D|---- 4---- 0-------- 4----------|-------------------- 2----------|
A| 5---------- 0-- 5---------- 0--|------------ 2-------------- 2--|
E|------ 2-------------- 2--------| 0------ 3------ 0------ 3------|
http://classicalguitartablature.blogspot.com/
E|-- 3 3-- 3-------- 3-- 3 3------|-- 7-- 7 7-------- 7-- 7 7------|
B| 0-------------- 0--------------| 3---- 8-------- 3---- 8--------|
G| 0-------------- 0--------------| 4---- 7---- 7-- 4---- 7---- 7--|
D| 0-------------- 0--------------| 5-------------- 5--------------|
A|---------- 2---------------- 2--|--------------------------------|
E| 0---- 3-------- 0---- 3--------| 3---- 7----10-- 3---- 7----10--|
http://classicalguitartablature.blogspot.com/
E|-- 3 3-- 3-------- 3-- 3 3------|-- 7-- 7 7-------- 7-- 7 7------|
B| 0-------------- 0--------------| 3---- 8-------- 3---- 8--------|
G| 0-------------- 0--------------| 4---- 7---- 7-- 4---- 7---- 7--|
D| 0-------------- 0--------------| 5-------------- 5--------------|
A|---------- 2---------------- 2--|--------------------------------|
E| 0---- 3-------- 0---- 3--------| 3---- 7----10-- 3---- 7----10--|
http://classicalguitartablature.blogspot.com/
E| 5-- 5-- 5-------------------- 7|------ 5------------------------|
B| 5------ 5---------------- 5-- 5|------ 5-------------- 5-- 8----|
G| 5------ 5-- 5-- 5---- 5-- 5----|---- 5------ 5-------- 5-- 5----|
D|------------ 7------ 7----------|-------------------- 7 7---- 7--|
A| 0---------- 7-- 0---------- 7--| 0-------- 7---- 0---------- 7--|
E|-------- 8------------ 8--------|------ 8-------------- 8--------|
http://classicalguitartablature.blogspot.com/
E| 2---- 0-------------- 0--------| 0------------------------------|
B| 3---- 3-- 3---- 3---------- 3--|--------------------------------|
G| 2---- 2-- 2---- 2--------------|---------------- 0--------------|
D|---- 4---- 0---- 4--------------|---- 2-------------- 2----------|
A| 5---------- 0-- 5---------- 0--|------------ 2-------------- 2--|
E|------ 2---------------- 2------| 0------ 3------ 0------ 3------|
http://classicalguitartablature.blogspot.com/
E| 5-- 5-- 5-------------------- 7|------ 5------------------------|
B| 5------ 5---------------- 5-- 5|------ 5-------------- 5-- 8----|
G| 5------ 5-- 5-- 5---- 5-- 5----|---- 5------ 5-------- 5-- 5----|
D|------------ 7------ 7----------|-------------------- 7 7---- 7--|
A| 0---------- 7-- 0---------- 7--| 0-------- 7---- 0---------- 7--|
E|-------- 8------------ 8--------|------ 8-------------- 8--------|
http://classicalguitartablature.blogspot.com/
E| 2---- 0-------------- 2---- 5--| 3 2 0--------------------------|
B| 3---- 3-- 3---- 3---- 3--------|---------------------------- 0--|
G| 2---- 2-- 2---- 2--------------|-------------------- 0----------|
D|---- 4---- 0-------- 4----------|-------------------- 2----------|
A| 5---------- 0-- 5---------- 0--|------------ 2-------------- 2--|
E|------ 2-------------- 2--------| 0------ 3------ 0------ 3------|
http://classicalguitartablature.blogspot.com/
E| 7-------- 5-- 3---- 2-- 0------| 0-- 3-- 2-- 0------ 0----------|
B| 0-------------- 0---- 0--------| 1-------------- 3------ 0------|
G|---- 0---------- 0--------------| 0-------------- 2---------- 2--|
D|--------------------------------|---------------- 4--------------|
A|------------ 2-------------- 2--| 3-------------- 5---------- 0--|
E| 0------ 3------ 0------ 3------|-------- 0-- 3------------ 2----|
http://classicalguitartablature.blogspot.com/
E|--------------------------------| 7-------- 5-- 3---- 2-- 0------|
B| 0-------------------------- 0--| 0-------------- 0---- 0--------|
G|---------------- 0---------- 0--|---- 0---------- 0--------------|
D|------ 0-------------- 0--------|--------------------------------|
A|-------- 2-- 5---------- 2-- 5--|------------ 2-------------- 2--|
E| 3-------------- 3--------------| 0------ 3------ 0------ 3------|
http://classicalguitartablature.blogspot.com/
E| 0-- 3-- 2-- 0------ 0----------|--------------------------------|
B| 1-------------- 3------ 0------| 0-------------------------- 0--|
G| 0-------------- 2---------- 2--|---------------- 0---------- 0--|
D|---------------- 4--------------|------ 0-------------- 0--------|
A| 3-------------- 5---------- 0--|-------- 2-- 5---------- 2-- 5--|
E|-------- 0-- 3------------ 2----| 3-------------- 3--------------|
http://classicalguitartablature.blogspot.com/
E| 5-- 5-- 5-------------------- 7|------ 5------------------------|
B| 5------ 5---------------- 5-- 5|------ 5-------------- 5-- 8----|
G| 5------ 5-- 5-- 5---- 5-- 5----|---- 5------ 5-------- 5-- 5----|
D|------------ 7------ 7----------|-------------------- 7 7---- 7--|
A| 0---------- 7-- 0---------- 7--| 0-------- 7---- 0---------- 7--|
E|-------- 8------------ 8--------|------ 8-------------- 8--------|
http://classicalguitartablature.blogspot.com/
E| 2---- 0-------------- 0--------| 0------------------------------|
B| 3---- 3-- 3---- 3---------- 3--|--------------------------------|
G| 2---- 2-- 2---- 2--------------|---------------- 0--------------|
D|---- 4---- 0---- 4--------------|---- 2-------------- 2----------|
A| 5---------- 0-- 5---------- 0--|------------ 2-------------- 2--|
E|------ 2---------------- 2------| 0------ 3------ 0------ 3------|
http://classicalguitartablature.blogspot.com/
E| 5-- 5-- 5-------------------- 7|------ 5------------------------|
B| 5------ 5---------------- 5-- 5|------ 5-------------- 5-- 8----|
G| 5------ 5-- 5-- 5---- 5-- 5----|---- 5------ 5-------- 5-- 5----|
D|------------ 7------ 7----------|-------------------- 7 7---- 7--|
A| 0---------- 7-- 0---------- 7--| 0-------- 7---- 0---------- 7--|
E|-------- 8------------ 8--------|------ 8-------------- 8--------|
http://classicalguitartablature.blogspot.com/
E| 2---- 0-------------- 2---- 5--| 3 2 0--------------------------|
B| 3---- 3-- 3---- 3---- 3--------|---------------------------- 0--|
G| 2---- 2-- 2---- 2--------------|-------------------- 0----------|
D|---- 4---- 0-------- 4----------|-------------------- 2----------|
A| 5---------- 0-- 5---------- 0--|------------ 2-------------- 2--|
E|------ 2-------------- 2--------| 0------ 3------ 0------ 3------|
http://classicalguitartablature.blogspot.com/
E|-- 3 3-- 3-------- 3-- 3 3------|-- 7-- 7 7-------- 7-- 7 7------|
B| 0-------------- 0--------------| 3---- 8-------- 3---- 8--------|
G| 0-------------- 0--------------| 4---- 7---- 7-- 4---- 7---- 7--|
D| 0-------------- 0--------------| 5-------------- 5--------------|
A|---------- 2---------------- 2--|--------------------------------|
E| 0---- 3-------- 0---- 3--------| 3---- 7----10-- 3---- 7----10--|
http://classicalguitartablature.blogspot.com/
E|-- 3 3-- 3-------- 3-- 3 3------|-- 7-- 7 7-------- 7-- 7 7------|
B| 0-------------- 0--------------| 3---- 8-------- 3---- 8--------|
G| 0-------------- 0--------------| 4---- 7---- 7-- 4---- 7---- 7--|
D| 0-------------- 0--------------| 5-------------- 5--------------|
A|---------- 2---------------- 2--|--------------------------------|
E| 0---- 3-------- 0---- 3--------| 3---- 7----10-- 3---- 7----10--|
http://classicalguitartablature.blogspot.com/
E| 0------------------ 0----------|--------------------------------|
B| 0---------------- 0------------|--------------------------------|
G| 0---------------- 0------------|--------------------------------|
D|---------------- 2--------------|--------------------------------|
A|---------------- 2--------------|--------------------------------|
E|-- 0------------ 0--------------|--------------------------------|
http://classicalguitartablature.blogspot.com/

0 ความคิดเห็น:

แสดงความคิดเห็น