To celebrate the anniversary, I am giving you (finally...) : iPhone LickByNeck !!!!!!

Seasons Of Love - Rent (BASIC)

Movie Rent's tune fingerstyle chord melody guitar BASIC arrangement played in the key of C.

Seasons Of Love-Rent-BASIC ARRANGEMENT played in the key of C.
http://classicalguitartablature.blogspot.com/
E| 3------------------------------|-------------------------- 0----|
B| 1------------ 3----------------|---- 1------ 1------ 0-- 1 0----|
G| 2------------ 0-------------- 5|---- 0------ 0---- 0-------- 0--|
D|-------------- 2-------------- 7|------ 0---- 2------ 0-- 2------|
A|------------------------------ 5|------------ 3---------- 0------|
E| 1------------ 0----------------|------ 3------------ 3------ 0--|
http://classicalguitartablature.blogspot.com/
E| 3------------------------------|-------------------------- 0----|
B| 1-------------- 3--------------|---- 1---- 1------ 0-- 1-- 0----|
G| 2-------------- 0--------------| 5-- 0------ 0---- 0-- 0---- 0--|
D|---------------- 2--------------| 7-- 0------ 2---- 0-- 2--------|
A|--------------------------------| 5---------- 0---------- 0------|
E| 1-------------- 0--------------|------ 3------------ 3------ 0--|
http://classicalguitartablature.blogspot.com/
http://classicalguitartablature.blogspot.com/
E|---- 3-- 3-- 3------------------|---------- 0------ 3------------|
B|---- 1-- 1-- 1 3-- 3 3-- 3-- 0--|------ 1-- 1------ 1------------|
G|---- 2-- 2-- 2-- 0 0 0-- 0---- 5|-- 5-- 0-- 0------ 0-------- 0--|
D|-------------- 2-- 2 2-- 2-- 2--| 4---- 0-- 2---------- 2--------|
A|--------------------------------| 5---------- 3------------------|
E| 1-------------- 0--------------|------ 3------------------------|
http://classicalguitartablature.blogspot.com/
E|---- 3 3-- 3--------------------|---------- 0-------------- 0----|
B|---- 1 1-- 1-- 3 3-- 3 3-- 0----|---- 1---- 1------ 0---- 1 1----|
G|------ 2-- 2---- 0 0-- 0---- 0 5|---- 0---- 0-------- 0---- 0----|
D|-------------- 2 2---- 2---- 2 7|---- 0-------------- 0-- 2------|
A|--------------------------------| 5-------- 0------------ 0------|
E| 1------------ 0----------------|---- 3-------------- 3------ 0--|
http://classicalguitartablature.blogspot.com/
E|---- 3-- 3-- 3------------------|---------- 0------ 3------------|
B|---- 1-- 1-- 1 3-- 3 3-- 3-- 0--|------ 1-- 1------ 1------------|
G|---- 2-- 2-- 2-- 0 0 0-- 0---- 5|-- 5-- 0-- 0------ 0-------- 0--|
D|-------------- 2-- 2 2-- 2-- 2--| 4---- 0-- 2---------- 2--------|
A|--------------------------------| 5---------- 3------------------|
E| 1-------------- 0--------------|------ 3------------------------|
http://classicalguitartablature.blogspot.com/
E|-- 3-- 3-- 3--------------------|------------------------------ 0|
B|-- 1-- 1---- 1 3 3-- 3 3-- 0----|---- 1------ 1------------ 1----|
G|-- 2-- 2---- 2 0 0-- 0-- 0---- 5|---- 0---------------- 0--------|
D|---------------- 2------ 2---- 3|---- 0------ 2---- 2------------|
A|------------------------------ 5|------------ 3------------------|
E| 1-------------- 0--------------|---- 3--------------------------|
http://classicalguitartablature.blogspot.com/
E|---- 3-------- 0-- 3------------|-- 3------ 0------ 0------------|
B| 1-- 1---- 1-- 1---- 1---- 1-- 5|-- 5-- 1-- 1---------- 3-- 1----|
G| 2-- 2-------- 0-------------- 5|------ 0-- 0---------- 0-- 0----|
D|-------- 3-------------- 2---- 3|---------------------- 2-- 2----|
A|------------------------------ 5|------------ 3------------------|
E| 1-------------- 0--------------|------ 3------------------------|
http://classicalguitartablature.blogspot.com/
E|------ 0-- 3--------------------|--------------------------------|
B|-- 1-- 1------------ 1 3-- 1-- 3|-- 3 1------ 1------------ 1----|
G|-- 2-- 2-- 2-------- 0 0-- 0-- 5|------------ 0-------- 0--------|
D|-- 3---------------- 2-- 2 2----|---- 0------ 2---- 2------------|
A|------------------------------ 5|------------ 0------------------|
E| 1---------- 0------------------|------ 3------------------------|
http://classicalguitartablature.blogspot.com/
E|-- 3---- 3 3--------------------|------------ 0---- 3------------|
B|-- 1---- 1 1-- 3-- 3-- 3-- 0----|---- 1------ 1---- 1-------- 1--|
G|-- 2---- 2-- 2 0-- 0-- 0-- 0-- 5|---- 0------ 0------------ 0----|
D|-------------- 2-- 2-- 2-- 2----| 3-- 0---- 2------------ 2------|
A|------------------------------ 5|------------ 3------------------|
E| 1-------------- 0--------------|------ 3---------------------- 1|
http://classicalguitartablature.blogspot.com/
E|-- 3-- 3-- 3--------------------|-------------------------- 5----|
B|-- 1-- 1-- 1-- 3 3 3-- 3-- 0----|---- 1---------------- 5 8------|
G|------ 2-- 2---- 0 0-- 0------ 5|---- 0------ 5---- 5------------|
D|-------------- 2-- 2-- 2------ 3|---- 0------ 5------------------|
A|--------------------------------| 5---------------------------- 8|
E|-------------- 0----------------|------ 3---- 5------------------|
http://classicalguitartablature.blogspot.com/
E|------ 8---- 8---- 8---- 8---- 8|------ 8---- 8------------------|
B|--------11--11----11--11------ 8|------ 8---- 8---------- 810----|
G|--------10--10----10--10------10|------10---- 9---- 9-- 9--------|
D|--------------------------------|--------------------------------|
A|-- 8---------------- 8---- 8----|--------------------------------|
E|--------------------------------| 8---------- 8------------------|
http://classicalguitartablature.blogspot.com/
E|------ 8---- 8-- 8---- 8--------|---------------------- 0 3 5----|
B|------11----11--11----11------ 1|------ 1---- 0------------------|
G|------10----10--10----10------ 0|------ 0---- 0------------------|
D|------------------------------ 0|------ 0---- 0------ 0----------|
A| 8 8---------------- 8---- 8----|--------------------------------|
E|------------------------------ 3|------------ 3------------------|
http://classicalguitartablature.blogspot.com/
E|------ 8---- 8-- 8---- 8------ 8|------ 8---- 8------------------|
B|--------11--11--11------11---- 8|------ 8---- 8------------------|
G|--------10--10--10------10----10|------10---- 9---------- 9------|
D|--------------------------------|--------------------10----1210--|
A| 8-- 8-------------- 8---- 8----|--------------------------------|
E|--------------------------------| 8---------- 8------------------|
http://classicalguitartablature.blogspot.com/
E|--------------------------------|-------- 3---- 5------ 8------ 8|
B|------------ 3---------- 3------|-------- 3---- 3-------------- 8|
G| 5------ 5-- 5------ 5----------|------------------------------ 7|
D|---- 3---------- 3---------- 3--|---- 3--------------------------|
A|--------------------------------|------------------------------ 8|
E| 6------------------------------| 3------------------------------|
http://classicalguitartablature.blogspot.com/
E|---------- 8-- 7---------- 7-- 5|---- 7------ 8------------ 8-- 8|
B|-------------- 8------ 8------ 6|---- 3------ 8------ 8--10---- 8|
G|------ 7---------- 7---------- 5|---- 4------ 7---------------- 7|
D|-- 7----------------------------|--------------------------------|
A|---------------- 7------------ 5|------------------------------ 8|
E|--------------------------------|---- 3------ 8------------------|
http://classicalguitartablature.blogspot.com/
E|---------- 8-- 7---------- 7-- 5|---- 7------ 8------------ 8----|
B|-------------- 8------ 8------ 6|---- 3------ 8------ 8--10------|
G|------ 7---------- 7---------- 5|---- 4------ 7---------------- 7|
D|-- 7----------------------------|--------------------------------|
A|---------------- 7------------ 5|--------------------------------|
E|--------------------------------|---- 3------ 8---------------- 6|
http://classicalguitartablature.blogspot.com/
E| 8------------------------------|--------------------------------|
B| 6------------------------------|--------------------------------|
G|--------------------------------|--------------------------------|
D|--------------------------------|--------------------------------|
A|--------------------------------|--------------------------------|
E|--------------------------------|--------------------------------|
http://classicalguitartablature.blogspot.com/

0 ความคิดเห็น:

แสดงความคิดเห็น