To celebrate the anniversary, I am giving you (finally...) : iPhone LickByNeck !!!!!!

Star Wars Imperial March Darth Vader Theme (SIMPLIFIED)

Star Wars Imperial March Darth Vader Theme fingerstyle chord melody guitar SIMPLIFIED arrangement played in the key of Em.

Star Wars - Imperial March / Darth Vader's Theme-SIMPLIFIED ARRANGEMENT played in the key of Em.
http://classicalguitartablature.blogspot.com/
E| 0---- 0------ 0-------------- 0|------ 0------ 0-------------- 0|
B| 0------ 0---- 0------ 1-- 1 1 0|------ 0------ 0------ 1-- 1 1 0|
G| 0------ 0---- 0------ 0-- 0 0 0|------ 0------ 0------ 0-- 0 0 0|
D|---------------------- 2-- 2 2--|---------------------- 2-- 2 2--|
A|------------------------ 3 3 3--|---------------------- 3-- 3 3--|
E| 0------ 0------ 0--------------| 0---- 0------ 0----------------|
http://classicalguitartablature.blogspot.com/
E|------ 0------ 0-------------- 0|------ 0------ 0-------------- 0|
B|------ 0------ 0------ 1-- 1 1 0|------ 0------ 0------ 1-- 1 1--|
G|------ 0------ 0------ 0-- 0 0 0|------ 0------ 0------ 0-- 0 0--|
D|---------------------- 2-- 2 2--|---------------------- 2-- 2 2--|
A|---------------------- 3-- 3 3--|---------------------- 3-- 3 3--|
E| 0---- 0------ 0----------------| 0---- 0------ 0----------------|
http://classicalguitartablature.blogspot.com/
http://classicalguitartablature.blogspot.com/
E|------ 0-------- 0---------- 3--| 0---------- 3 0----------------|
B| 0------ 0------ 0------ 1------| 0---- 1------ 0----------------|
G| 0------ 0------ 0------ 0-- 0--| 0---- 0---- 0 0----------------|
D|---------------- 2------ 2------|------ 2------------------------|
A|--------------------------------|--------------------------------|
E| 0------ 0------ 0------ 0-- 0--| 0------ 0------ 0------ 0------|
http://classicalguitartablature.blogspot.com/
E| 7---- 7-------- 7------ 8------|------------ 3 0----------------|
B| 8------ 8------ 8------ 8-- 8--|-------- 1------ 0--------------|
G| 9------ 9------ 9---------- 8 8|-------- 0------ 0--------------|
D|------------------------------10|-------- 2-------------- 2------|
A|--------------------------------|--------------------------------|
E| 0------ 0------ 0------ 8-- 8--| 8------ 3------ 0------ 0------|
http://classicalguitartablature.blogspot.com/
E|12--------------12----11----10--| 9 8 9---------- 6--------------|
B| 8-------------- 0------ 0------| 6-- 6------ 6-- 6----10---- 9--|
G| 9------ 9------ 0------ 0------| 6-- 6------ 6-- 6------ 6------|
D|--------10---- 0----------------|------------ 8------------------|
A|--------------------------------|--------------------------------|
E| 8------ 8------ 0------ 0------| 6------ 6------ 6------ 6------|
http://classicalguitartablature.blogspot.com/
E| 3 2 3--------------------------|-------------- 7----------------|
B| 4-------------- 4---------- 4--| 8---------- 8 8----------------|
G| 5---------- 5---------- 5------| 9---- 9------------------------|
D|--------------------------------| 9---- 9------------------------|
A| 3------ 3------ 3------ 3------|--------------------------------|
E|--------------------------------| 0------ 0------ 0------ 0------|
http://classicalguitartablature.blogspot.com/
E|12--------------12----11----10--| 9 8 9---------- 6------------ 3|
B| 8-------------- 0------ 0------| 6-- 6------ 6-- 6----10---- 9 4|
G| 9------ 9------ 0------ 0------| 6-- 6------ 6-- 6------ 6------|
D|--------10---- 0----------------|------------ 8------------------|
A|--------------------------------|--------------------------------|
E| 8------ 8------ 0------ 0------| 6------ 6------ 6------ 6------|
http://classicalguitartablature.blogspot.com/
E|-- 2 3---------------------- 3 0|------------ 3 0----------------|
B|---------------- 4------------ 0|------ 1---- 1 0----------------|
G| 5---------- 5-------- 5--------| 0---- 0---- 0 0----------------|
D|---------------------- 5--------|------ 2------------------------|
A| 3------ 3------ 3------ 3------|------ 3------------------------|
E|--------------------------------| 0-------------- 0------ 0------|
http://classicalguitartablature.blogspot.com/
E| 0---- 0------ 0-------------- 0|------ 0------ 0-------------- 0|
B| 0------ 0---- 0------ 1-- 1 1 0|------ 0------ 0------ 1-- 1 1 0|
G| 0------ 0---- 0------ 0-- 0 0 0|------ 0------ 0------ 0-- 0 0 0|
D|---------------------- 2-- 2 2--|---------------------- 2-- 2 2--|
A|------------------------ 3 3 3--|---------------------- 3-- 3 3--|
E| 0------ 0------ 0--------------| 0---- 0------ 0----------------|
http://classicalguitartablature.blogspot.com/
E|------ 0------ 0-------------- 0|------ 0------ 0-------------- 0|
B|------ 0------ 0------ 1-- 1 1 0|------ 0------ 0------ 1-- 1 1--|
G|------ 0------ 0------ 0-- 0 0 0|------ 0------ 0------ 0-- 0 0--|
D|---------------------- 2-- 2 2--|---------------------- 2-- 2 2--|
A|---------------------- 3-- 3 3--|---------------------- 3-- 3 3--|
E| 0---- 0------ 0----------------| 0---- 0------ 0----------------|
http://classicalguitartablature.blogspot.com/
E|------ 0-------- 0---------- 3--| 0---------- 3 0----------------|
B| 0------ 0------ 0------ 1------| 0---- 1------ 0----------------|
G| 0------ 0------ 0------ 0-- 0--| 0---- 0---- 0 0----------------|
D|---------------- 2------ 2------|------ 2------------------------|
A|--------------------------------|--------------------------------|
E| 0------ 0------ 0------ 0-- 0--| 0------ 0------ 0------ 0------|
http://classicalguitartablature.blogspot.com/
E| 7---- 7-------- 7------ 8------|------------ 3 0----------------|
B| 8------ 8------ 8------ 8-- 8--|-------- 1------ 0--------------|
G| 9------ 9------ 9---------- 8 8|-------- 0------ 0--------------|
D|------------------------------10|-------- 2-------------- 2------|
A|--------------------------------|--------------------------------|
E| 0------ 0------ 0------ 8-- 8--| 8------ 3------ 0------ 0------|
http://classicalguitartablature.blogspot.com/
E|12--------------12----11----10--| 9 8 9---------- 6--------------|
B| 8-------------- 0------ 0------| 6-- 6------ 6-- 6----10---- 9--|
G| 9------ 9------ 0------ 0------| 6-- 6------ 6-- 6------ 6------|
D|--------10---- 0----------------|------------ 8------------------|
A|--------------------------------|--------------------------------|
E| 8------ 8------ 0------ 0------| 6------ 6------ 6------ 6------|
http://classicalguitartablature.blogspot.com/
E| 3 2 3--------------------------|-------------- 7----------------|
B| 4-------------- 4---------- 4--| 8---------- 8 8----------------|
G| 5---------- 5---------- 5------| 9---- 9------------------------|
D|--------------------------------| 9---- 9------------------------|
A| 3------ 3------ 3------ 3------|--------------------------------|
E|--------------------------------| 0------ 0------ 0------ 0------|
http://classicalguitartablature.blogspot.com/
E|12--------------12----11----10--| 9 8 9---------- 6------------ 3|
B| 8-------------- 0------ 0------| 6-- 6------ 6-- 6----10---- 9 4|
G| 9------ 9------ 0------ 0------| 6-- 6------ 6-- 6------ 6------|
D|--------10---- 0----------------|------------ 8------------------|
A|--------------------------------|--------------------------------|
E| 8------ 8------ 0------ 0------| 6------ 6------ 6------ 6------|
http://classicalguitartablature.blogspot.com/
E|-- 2 3---------------------- 3 0|------------ 3 0----------------|
B|---------------- 4------------ 0|------ 1---- 1 0----------------|
G| 5---------- 5-------- 5--------| 0---- 0---- 0 0----------------|
D|---------------------- 5--------|------ 2------------------------|
A| 3------ 3------ 3------ 3------|------ 3------------------------|
E|--------------------------------| 0-------------- 0------ 0------|
http://classicalguitartablature.blogspot.com/
E| 0------ 0------ 0---------- 3 0|------------ 3 0----------------|
B| 0------ 0------ 0------ 1-- 1 0|------ 1---- 1 2----------------|
G| 0------ 0------ 0------ 0-- 0--| 0------ 0------ 0--------------|
D|------------------------ 2------|------ 2------------------------|
A|------------------------ 3------|-------- 3----------------------|
E| 0------ 0------ 0--------------| 0-------------- 0--------------|
http://classicalguitartablature.blogspot.com/
E|--------------------------------|--------------------------------|
B|--------------------------------|--------------------------------|
G|--------------------------------|--------------------------------|
D|--------------------------------|--------------------------------|
A|--------------------------------|--------------------------------|
E|--------------------------------|--------------------------------|
http://classicalguitartablature.blogspot.com/

0 ความคิดเห็น:

แสดงความคิดเห็น