To celebrate the anniversary, I am giving you (finally...) : iPhone LickByNeck !!!!!!

Strange Love (BASIC)

Depeche Mode's tune fingerstyle chord melody guitar BASIC arrangement played in the key of Em.

Strange Love-Depeche Mode-BASIC ARRANGEMENT played in the key of Em.
http://classicalguitartablature.blogspot.com/
E|--------------------------------|--------------------------------|
B|-------- 8------10------ 8------|-------- 8------10--10-- 8------|
G|---- 9------ 9-------------- 9--|---- 9------ 9-------------- 9--|
D|--------------------------------|--------------------------------|
A|--------------------------------|--------------------------------|
E| 0-------------------------- 0--|---- 0--------------------------|
http://classicalguitartablature.blogspot.com/
E|--------------------------------|----------------10--10-- 7------|
B|-------- 8------10------ 8------|-------- 8------------------ 8--|
G|---- 9------ 9-------------- 9--|---- 9------ 9------------------|
D|--------------------------------|--------------------------------|
A|--------------------------------|--------------------------------|
E| 8-------------------------- 5--|---- 5--------------------------|
http://classicalguitartablature.blogspot.com/
http://classicalguitartablature.blogspot.com/
E|--------------------------------|--------------------------------|
B|-------- 8------10------ 8------|-------- 8------10--10-- 8------|
G|---- 9------ 9-------------- 9--|---- 9------ 9-------------- 9--|
D|--------------------------------|--------------------------------|
A|--------------------------------|--------------------------------|
E| 0-------------------------- 0--|---- 0--------------------------|
http://classicalguitartablature.blogspot.com/
E|--------------------------------|----------------10--10-- 7------|
B|-------- 8------10------ 8------|-------- 8------------------ 8--|
G|---- 9------ 9-------------- 9--|---- 9------ 9------------------|
D|--------------------------------|--------------------------------|
A|--------------------------------|--------------------------------|
E| 8-------------------------- 5--|---- 5--------------------------|
http://classicalguitartablature.blogspot.com/
E| 7---------- 0------------------|--------------------------------|
B| 0---------- 0------------------| 5-- 7------ 8-- 7---------- 0--|
G| 0---------- 0---------- 0------| 5-- 7------ 7-- 7------ 7------|
D|--------------------------------| 5-- 5--------------------------|
A|--------------------------------|--------------------------------|
E| 0---- 0---- 0------ 0------ 0--| 5------ 7------ 8--------------|
http://classicalguitartablature.blogspot.com/
E|---- 7---- 0-------- 0------ 0--|10-- 8------10-- 7--------------|
B|---- 0---- 0-------- 0----------| 8-- 8------ 8-- 8---- 8--------|
G|------------ 0------------------|---- 7---------- 7---------- 9--|
D|--------------------------------|--------------------------------|
A|--------------------------------| 0------------------------------|
E| 0---------- 0-------------- 0--|-------- 7------ 8--------------|
http://classicalguitartablature.blogspot.com/
E| 7---------- 0------------------|---------------- 7---------- 7--|
B| 0---------- 0------------------|-------- 5-- 5--10--10----------|
G|------------ 0------------------|---- 5-- 7-- 7-- 9-- 9-- 9------|
D|--------------------------------|-------- 5-- 5------------------|
A|--------------------------------|--------------------------------|
E| 0---- 0---- 0------ 0------ 0--| 5------ 7------ 8--------------|
http://classicalguitartablature.blogspot.com/
E|--------------------------------|--------------------------------|
B|-------------- 7---- 8------ 5--|-------- 5------ 7-- 8------ 3--|
G|-------- 9---- 9---- 9------ 5--|-------- 5------ 5-- 5------ 0--|
D|---- 9------ 9------ 9------ 5--|---- 5------ 5------ 5------ 0--|
A|--------------------------------|--------------------------------|
E| 0------ 0------ 0------ 0------| 5------ 5------ 5------ 5------|
http://classicalguitartablature.blogspot.com/
E|---------------- 2-- 3----------|--------------------------------|
B|-------- 3------ 3-- 3------ 1--|---- 1------ 3-- 3-- 3-- 3-- 5--|
G|-------- 0------ 0-- 0----------|---- 0------ 2------------------|
D|---- 0------ 0------------------|---- 2------ 4------------------|
A|--------------------------------| 3------ 5----------------------|
E| 3------ 3------ 3------ 3------|---------------- 0------ 0------|
http://classicalguitartablature.blogspot.com/
E|---- 0-- 3-- 0-- 5------ 3-- 0--|---- 0-- 3-- 0-- 5-- 5-- 3-- 0--|
B|---- 0-- 0-- 0-- 0------ 0-- 0--|---- 0-- 0-- 0-- 0-- 0-- 0-- 0--|
G|-------- 0------ 0------ 0-- 0--|---- 0-- 0-- 0-- 0-- 0-- 0-- 0--|
D|--------------------------------|--------------------------------|
A|--------------------------------|--------------------------------|
E| 0------ 0------ 0------ 0------| 0------ 0------ 0------ 0------|
http://classicalguitartablature.blogspot.com/
E|---- 0-- 3-- 0-- 5------ 3-- 0--|----------------1010---- 7------|
B|---- 0-- 0-- 0-- 0------ 0-- 0--|-------- 8------------------ 8--|
G|-------- 0-- 0-- 0------ 0-- 0--|---- 9------ 9------------------|
D|--------------------------------|--------------------------------|
A| 3------ 3------ 3------ 3------| 0------ 0------ 0---- 0--------|
E|--------------------------------|--------------------------------|
http://classicalguitartablature.blogspot.com/
E|---- 0-- 3-- 0-- 5------ 3-- 0--|---- 0-- 3-- 0-- 5-- 5-- 3-- 0--|
B|---- 0-- 0-- 0-- 0------ 0-- 0--|---- 0-- 0-- 0-- 0-- 0-- 0-- 0--|
G|-------- 0------ 0------ 0-- 0--|---- 0-- 0-- 0-- 0-- 0-- 0-- 0--|
D|--------------------------------|--------------------------------|
A|--------------------------------|--------------------------------|
E| 0------ 0------ 0------ 0------| 0------ 0------ 0------ 0------|
http://classicalguitartablature.blogspot.com/
E|---- 0-- 3-- 0-- 5------ 3-- 0--|--------------10------------ 7--|
B|---- 0-- 0-- 0-- 0------ 0-- 0--|------ 8------------------------|
G|-------- 0-- 0-- 0------ 0-- 0--|---- 9---- 9------ 9-- 9--------|
D|--------------------------------|--------------------------------|
A| 3------ 3------ 3------ 3------| 0------ 0---- 0-------- 0------|
E|--------------------------------|--------------------------------|
http://classicalguitartablature.blogspot.com/
E|---------------------------- 7--|----------------------------10--|
B|-------- 8------ 7--------------|-------- 8------ 7--------------|
G|-------------------- 9-- 9------|-------------------- 9-- 9------|
D|---- 9------ 9------------------|---- 9------ 9------------------|
A|--------------------------------|--------------------------------|
E| 0------ 0------ 0------ 0------| 0------ 0------ 0------ 0------|
http://classicalguitartablature.blogspot.com/
E|---- 8------10------------------|10-- 8------10 7------------ 7--|
B|----------------12-- 8----------|--------------------------------|
G|---------------------------- 9--|-------------------- 9-- 9------|
D|--------------------------------|--------------------------------|
A|--------------------------------| 0------ 0------ 0------ 0------|
E| 8------ 8------ 8------ 8------|--------------------------------|
http://classicalguitartablature.blogspot.com/
E|---------------------------- 7--|----------------------------10--|
B|-------- 8------ 7--------------|-------- 8------ 7---------- 8--|
G|-------------------- 9-- 9------|-------------------- 9-- 9-- 9--|
D|---- 9------ 9------------------|---- 9------ 9------------------|
A|--------------------------------|--------------------------------|
E| 0------ 0------ 0------ 0------| 0------ 0------ 0------ 0------|
http://classicalguitartablature.blogspot.com/
E|---- 8----10--------------------|------------ 7------------------|
B|---- 8------ 8--12---------- 8--|----10------ 8------------------|
G|-------------------- 9-- 9-- 9--|---- 9-------------- 9 9---- 9--|
D|--------------------------------|--------------------------------|
A|--------------------------------| 0------ 0------ 0------ 0------|
E| 8------ 8------ 8------ 8------|--------------------------------|
http://classicalguitartablature.blogspot.com/
E| 3-- 2------ 0------------------| 3-- 2------ 0------ 5------ 5--|
B| 0-- 0------ 0------ 0------ 0--| 0-- 0------ 0-------------- 0--|
G|---- 0---------------------- 0--| 0-- 0------ 0-------------- 0--|
D|---------------------------- 0--|--------------------------------|
A|--------------------------------|--------------------------------|
E| 0---------- 0-------------- 0--| 0---------- 0-------------- 0--|
http://classicalguitartablature.blogspot.com/
E|---------------------------- 5--|-------------------- 7------ 5--|
B|10--10-- 8------ 7---------- 5--|---- 8------ 7------ 5----------|
G| 7-- 7-- 7---------- 7------ 5--|---- 5------ 5------ 5------ 5--|
D| 7-- 7-- 5----------------------|---- 5------ 5------------------|
A|--------------------------------|--------------------------------|
E| 8---------- 8------------------| 5---------- 5-------------- 5--|
http://classicalguitartablature.blogspot.com/
E| 7---------- 0-------- 7--------| 5------------------------------|
B| 0---------- 0---- 0------------|---------------------------- 5--|
G|--------------------------------|------------ 7------------------|
D|---- 0---------------------- 0--|---- 7-------------- 7----------|
A|--------------------------------| 5------ 5------ 5------ 5------|
E| 0------ 0------ 0------ 0------|--------------------------------|
http://classicalguitartablature.blogspot.com/
E|--------------------------------|10-- 8------10-- 7--------------|
B|---------------------------- 5--| 8-- 8-------------- 8----------|
G|---- 5------ 5------ 7------ 7--| 9-- 9---------------------- 9--|
D|---- 5------ 5------ 5------ 5--|--------------------------------|
A|--------------------------------|--------------------------------|
E| 5------ 5------ 7------ 7------| 8------ 8------10------10------|
http://classicalguitartablature.blogspot.com/
E|--------------------------------|--------------------------------|
B| 5-------------- 3-- 3-- 3-- 5--|-------------- 3---- 3-- 3-- 5--|
G| 4---------- 4------------------|------------ 4------------------|
D|--------------------------------|--------------------------------|
A|--------------------------------|--------------------------------|
E| 0-------------------------- 0--|---- 0--------------------------|
http://classicalguitartablature.blogspot.com/
E|------------ 3------------------|---------------- 3------ 2------|
B|--------------------------------|--------------------------------|
G|--------------------------------|------------ 4------------------|
D|--------------------------------|--------------------------------|
A| 3-------------------------- 0--|---- 0--------------------------|
E|--------------------------------|--------------------------------|
http://classicalguitartablature.blogspot.com/
E|--------------------------------|---- 7-- 6-- 7-- 7-- 5 3--------|
B| 5-------------- 3-- 3-- 3-- 5--|---------------------------- 5--|
G| 4---------- 4------------------|--------------------------------|
D|--------------------------------|--------------------------------|
A|--------------------------------|--------------------------------|
E| 0-------------------------- 0--|---- 0--------------------------|
http://classicalguitartablature.blogspot.com/
E|------------ 3------------------|---------------- 3------ 2------|
B|--------------------------------|--------------------------------|
G|--------------------------------|------------ 4------ 4----------|
D|--------------------------------|--------------------------------|
A| 3-------------------------- 0--|---- 0--------------------------|
E|--------------------------------|--------------------------------|
http://classicalguitartablature.blogspot.com/
E|--------------------------------|--------------------------------|
B|-------- 8------10------ 8------|-------- 8------10--10-- 8------|
G|---- 9------ 9-------------- 9--|---- 9------ 9-------------- 9--|
D|--------------------------------|--------------------------------|
A|--------------------------------|--------------------------------|
E| 0-------------------------- 0--|---- 0--------------------------|
http://classicalguitartablature.blogspot.com/
E|--------------------------------|----------------10--10-- 7------|
B|-------- 8------10------ 8------|-------- 8------------------ 8--|
G|---- 9------ 9-------------- 9--|---- 9------ 9------------------|
D|--------------------------------|--------------------------------|
A|--------------------------------|--------------------------------|
E| 8-------------------------- 5--|---- 5--------------------------|
http://classicalguitartablature.blogspot.com/
E|--------------------------------|--------------------------------|
B| 5------------------------------|--------------------------------|
G| 4------------------------------|--------------------------------|
D| 2------------------------------|--------------------------------|
A|--------------------------------|--------------------------------|
E| 0------------------------------|--------------------------------|
http://classicalguitartablature.blogspot.com/

0 ความคิดเห็น:

แสดงความคิดเห็น