To celebrate the anniversary, I am giving you (finally...) : iPhone LickByNeck !!!!!!
0 com

Going Home (BASIC)

Antonin Dvorak's tune fingerstyle chord melody guitar BASIC arrangement played in the key of C.

Going Home - Antonin Dvorak - BASIC ARRANGEMENT played in the key of C.
http://classicalguitartablature.blogspot.com/
E|10--------------10--------------| 8------------------------------|
B|10----13--------------10--------| 8---------- 8------------------|
G|10----10------------------------| 7------ 7------ 7--------------|
D|--10------10------10------------|---- 7--------------------------|
A|10------------------------------|--------------------------------|
E|--------------------------------| 8------------------------------|
http://classicalguitartablature.blogspot.com/
E|--------------------------------|--------------------------------|
B| 3---- 1-------- 3--------------| 1------------------------------|
G| 2---- 2-------- 1------ 2------| 0------------------------------|
D|-- 3-------- 3-- 3-- 3------ 3--| 2------------------------------|
A|------------------------------ 3|--------------------------------|
E| 3------------ 3----------------|--------------------------------|
http://classicalguitartablature.blogspot.com/
http://classicalguitartablature.blogspot.com/
E| 0-------- 3-- 3---------- 3-- 0|--------------------------------|
B| 1------------ 0-------------- 1|------ 3------ 1------------ 1--|
G| 0---- 0-------------- 0--------| 0------------ 0-------- 0------|
D|-- 2-------------- 0------------|---- 2---- 2------ 2------------|
A| 3------------ 2----------------| 0------------------------------|
E|--------------------------------|-------------- 3----------------|
http://classicalguitartablature.blogspot.com/
E|------------ 0-- 3------ 0------|--------------------------------|
B| 3-------------- 1------ 1------| 3-------------------------- 1--|
G| 2------ 2------ 0--------------|-------- 5-------------- 2------|
D|---- 3-------------- 2------ 2--|---- 3------ 3------ 3----------|
A|--------------------------------| 5------------------------------|
E| 1-------------- 0--------------|---------------- 3--------------|
http://classicalguitartablature.blogspot.com/
E| 0-------- 3-- 3---------- 3-- 0|--------------------------------|
B| 1------------ 0-------------- 1|------ 3------ 1------------ 1--|
G| 0---- 0-------------- 0--------| 0------------ 0-------- 0------|
D|-- 2-------------- 0------------|---- 2---- 2------ 2------------|
A| 3------------ 2----------------| 0------------------------------|
E|--------------------------------|-------------- 3----------------|
http://classicalguitartablature.blogspot.com/
E|-------- 0----------------------|--------------------------------|
B| 3-------------- 3------ 1------| 1---------- 1-------------- 1--|
G| 2-------------- 2------ 2------| 0------ 0-------------- 0------|
D|---- 3------ 3------ 3------ 3--|---- 2-------------- 2----------|
A|--------------------------------| 3-------------- 3--------------|
E| 1-------------- 3--------------|--------------------------------|
http://classicalguitartablature.blogspot.com/
E|------------ 8-- 8--------------| 7------------------------------|
B|10--------------10--------------| 8------ 8------10--------------|
G| 9------ 9-------------- 9------| 7------ 5------ 9------ 9------|
D|----10--------------10------10--|---- 9-- 5-- 5------10------10--|
A| 8-------------- 8--------------|10------ 7------ 8--------------|
E|--------------------------------|--------------------------------|
http://classicalguitartablature.blogspot.com/
E|-------- 8------ 7--------------| 5------------------------------|
B|10------10------ 8---- 8--------| 5---------- 5-------------- 5--|
G| 9-------------- 7------ 5------| 5------ 5-------------- 5------|
D|----10------10------ 9-- 5-- 5--|---- 7-------------- 7----------|
A| 8--------------10------ 7------| 8-------------- 8--------------|
E|--------------------------------|--------------------------------|
http://classicalguitartablature.blogspot.com/
E|------------ 8-- 8--------------| 7------------------------------|
B|10--------------10--------------| 8------ 8------10--------------|
G| 9------ 9-------------- 9------| 7------ 5------ 9------ 9------|
D|----10--------------10------10--|---- 9-- 5-- 5------10------10--|
A| 8-------------- 8--------------|10------ 7------ 8--------------|
E|--------------------------------|--------------------------------|
http://classicalguitartablature.blogspot.com/
E|-------- 8------ 7--------------| 5------------------------------|
B|10------10------ 8---- 8--------| 5---------- 5-------------- 5--|
G| 9-------------- 7------ 5------| 5------ 5-------------- 5------|
D|----10------10------ 9-- 5-- 5--|---- 7-------------- 7----------|
A| 8--------------10------ 7------| 8-------------- 8--------------|
E|--------------------------------|--------------------------------|
http://classicalguitartablature.blogspot.com/
E| 0-------- 3-- 3---------- 3-- 0|--------------------------------|
B| 1------------ 0-------------- 1|------ 3------ 1------------ 1--|
G| 0---- 0-------------- 0--------| 0------------ 0-------- 0------|
D|-- 2-------------- 0------------|---- 2---- 2------ 2------------|
A| 3------------ 2----------------| 0------------------------------|
E|--------------------------------|-------------- 3----------------|
http://classicalguitartablature.blogspot.com/
E|------------ 0-- 3------ 0------|--------------------------------|
B| 3-------------- 1------ 1------| 3-------------------------- 1--|
G| 2------ 2------ 0--------------|-------- 5-------------- 2------|
D|---- 3-------------- 2------ 2--|---- 3------ 3------ 3----------|
A|--------------------------------| 5------------------------------|
E| 1-------------- 0--------------|---------------- 3--------------|
http://classicalguitartablature.blogspot.com/
E| 0-------- 3-- 3---------- 3-- 8|------10------12----------------|
B| 1------------ 0----------------| 8------------10--------10------|
G| 0---- 0-------------- 0--------|---- 9------ 9------ 9------ 9--|
D|-- 2-------------- 0------------|--------------------------------|
A| 3------------ 2----------------| 0------------10----------------|
E|--------------------------------|--------------------------------|
http://classicalguitartablature.blogspot.com/
E|10------ 8----10----------------| 8-------------- 8--------------|
B|10------10------10------10------| 8---------- 8------------------|
G| 9-- 9------ 9--10----------10--|-------- 7----------------------|
D|--------------------10----------|---- 7--------------------------|
A| 8--------------10--------------|--------------------------------|
E|--------------------------------| 8------------------------------|
http://classicalguitartablature.blogspot.com/
E| 0-------- 3------------------ 8|--------10------12--------------|
B| 1------------ 8----------------| 8------12------10--------------|
G| 0---- 0------ 7----------------|---- 9------10-------- 9--------|
D|-- 2---------- 5-- 5------ 5----|--------------------------------|
A| 3---------------------------- 0|--------11------10-------- 9----|
E|-------------- 7------ 6--------|--------------------------------|
http://classicalguitartablature.blogspot.com/
E|------10------ 8--------10------|---- 5--------------------------|
B|------10------ 8---------- 8----|---- 8--------------------------|
G| 9-------- 9-------- 7---- 7-- 7|---- 5--------------------------|
D|--------------------------------|---------- 7--------------------|
A|------ 8-------- 7-------- 6----|---- 5--------------------------|
E|--------------------------------|--------------------------------|
http://classicalguitartablature.blogspot.com/
E|---------------------- 8--------|--------------------------------|
B|--------------------------------| 9------------------------------|
G|--------------------10------10--|--------------------------------|
D|------------------------11------|--------------------------------|
A|--------------------------------|--------------------------------|
E|-------------------- 9----------|--------------------------------|
http://classicalguitartablature.blogspot.com/
E|--------------------------------|--------------------------------|
B|--------------------------------|--------------------------------|
G|---------------------- 0--------|--------------------------------|
D|-------------------- 5----------|--------------------------------|
A|--------------------------------|--------------------------------|
E|-------------------- 8----------|--------------------------------|
http://classicalguitartablature.blogspot.com/
0 com

So Far Away (BASIC)

Carole King's tune fingerstyle chord melody guitar BASIC arrangement played in the key of D.

So Far Away - Carole King - BASIC ARRANGEMENT played in the key of D.
http://classicalguitartablature.blogspot.com/
E| 0---------- 2------------------|--------------------------------|
B| 3---------- 3------------ 3-- 2| 3-- 2--------------------------|
G| 2---------- 2-------- 2 4 2-- 2|------ 2---------- 2------------|
D|------------------------------ 4|---------- 4---- 2------ 4-- 0--|
A| 5---------------------------- 5|--------------------------------|
E|------------ 3------------------|---------------- 3--------------|
http://classicalguitartablature.blogspot.com/
E|--------------------------------|-------- 5-- 2------------------|
B|-------- 2------------ 0 3------| 5---------- 3------------------|
G|---- 2--------------------------|-- 6-------- 2-------------- 2--|
D| 2---------- 4-------------- 0--|---- 7--------------------------|
A| 5------------------------------| 5------------------------------|
E|------------ 3------------------|------------ 3------------------|
http://classicalguitartablature.blogspot.com/
http://classicalguitartablature.blogspot.com/
E| 0---------- 2------------------|-------------- 2-- 0-------- 2--|
B| 3------ 3-- 3 3----------------|-- 0 0-- 3 0-- 3-------- 3-- 3--|
G| 2------ 2------------ 2--------| 2------------ 2------------ 4--|
D|---- 4-------------- 4------ 4--|--------------------------------|
A| 5-------------- 5--------------| 5-------------- 5--------------|
E|--------------------------------|--------------------------------|
http://classicalguitartablature.blogspot.com/
E|------ 0------------------------|---------- 0---- 2-- 0---- 0----|
B|---- 3------ 3-------- 3--------| 0-- 3-- 3------ 0------ 3 0----|
G|-------------------- 4----------| 0-- 0-- 0------ 0--------------|
D|--------------------------------| 4-- 4-- 4----------------------|
A|--------------------------------|---------------- 0--------------|
E| 3-------------- 3------ 3 2----| 0------------------------------|
http://classicalguitartablature.blogspot.com/
E| 2-- 2-- 3-- 2------------------| 2 0-- 0-- 2--------------------|
B| 3-- 3-- 3-- 3------------------| 3 3-- 3-- 3-- 3-------- 0-- 3--|
G| 2-- 2-- 4-- 2---------- 2------| 0 0-- 2-- 2------------ 0-- 0--|
D|-------------------- 4------ 4--|------------------ 0-- 0--------|
A| 5------ 5-- 5------------------|---------------------- 0--------|
E|--------------------------------| 3------ 2------ 0--------------|
http://classicalguitartablature.blogspot.com/
E| 0---------- 2------------------|-------------- 2-- 0-------- 2--|
B| 3------ 3-- 3 3----------------|-- 0 0-- 3 0-- 3-------- 3-- 3--|
G| 2------ 2------------ 2--------| 2------------ 2------------ 4--|
D|---- 4-------------- 4------ 4--|--------------------------------|
A| 5-------------- 5--------------| 5-------------- 5--------------|
E|--------------------------------|--------------------------------|
http://classicalguitartablature.blogspot.com/
E|------ 0------------------------|---------- 0---- 2-- 0---- 0----|
B|---- 3------ 3-------- 3--------| 0-- 3-- 3------ 0------ 3 0----|
G|-------------------- 4----------| 0-- 0-- 0------ 0--------------|
D|--------------------------------| 4-- 4-- 4----------------------|
A|--------------------------------|---------------- 0--------------|
E| 3-------------- 3------ 3 2----| 0------------------------------|
http://classicalguitartablature.blogspot.com/
E| 2-- 2-- 3-- 2------------------| 2 0-- 0-- 2--------------------|
B| 3-- 3-- 3-- 3------------------| 3 3-- 3-- 3-- 3-------- 0-- 3--|
G| 2-- 2-- 4-- 2---------- 2------| 0 0-- 2-- 2------------ 0-- 0--|
D|-------------------- 4------ 4--|------------------ 0-- 0--------|
A| 5------ 5-- 5------------------|---------------------- 0--------|
E|--------------------------------| 3------ 2------ 0--------------|
http://classicalguitartablature.blogspot.com/
E|---- 0-------------- 2----------|---- 5-- 5----------------------|
B|---- 3-------- 3-- 3-- 3--------| 5-- 5-- 5-- 5-- 7------------ 2|
G|---- 2------ 2------ 2 2---- 2--| 6-- 6-- 6-- 6-- 6---- 6-- 2----|
D|-------- 4---------------- 4-- 4| 7---------- 7-- 7-- 7---- 2----|
A| 5-------------- 5--------------| 5-------------- 5------ 4------|
E|--------------------------------|--------------------------------|
http://classicalguitartablature.blogspot.com/
E|------------ 0-- 2 0-- 0---- 2--|--------------------------------|
B|-- 3-- 3-------- 3-- 3 3---- 3--| 3-- 0---------- 1 0------------|
G| 4---- 4-------- 4---- 4---- 4--| 0 2 0------ 0---- 0-------- 2--|
D| 4------------------------------| 0------ 0---- 0 2 0-- 0---- 0--|
A| 2-------------- 0--------------|--------------------------------|
E|--------------------------------| 3---------------------- 2------|
http://classicalguitartablature.blogspot.com/
E|------------ 0-- 2 0---- 0------| 2------------------------------|
B| 0-- 3-- 3 0---- 0-- 3------ 3--| 3------ 3-------------- 3------|
G| 0-- 0-- 0------ 0--------------| 2------ 2-------------- 2------|
D| 4-- 4-- 4----------------------|---- 4-------------- 4------ 4--|
A|---------------- 0--------------| 5------------ 5 5--------------|
E| 0------------------------------|--------------------------------|
http://classicalguitartablature.blogspot.com/
E|---------- 7---------------- 5--|-- 3 2 0-- 0---------------- 2--|
B| 7-- 9--10-- 7--10-- 8-- 7------|-- 0 0 0-- 0---------- 0--------|
G| 9-- 9-- 9------ 9--------------|---- 0 0-- 0------------ 0------|
D| 7-- 7-- 7-- 7 7----------------|-------------------- 0----------|
A| 9------------ 9----------------|--------------------------------|
E|------------------------------ 0|---------------- 0--------------|
http://classicalguitartablature.blogspot.com/
E| 3-- 2-- 0----------------------| 2-- 0-- 0----------------------|
B| 0-- 0------ 3------------ 3----| 0-- 0-- 0---------- 3-- 0-- 3--|
G| 0-- 0------------------ 4------| 0-- 0-- 0---- 0---- 0----------|
D|------------ 2------ 4----------|------------ 0------ 0----------|
A| 0---------- 1-- 2--------------|---------------- 0--------------|
E|--------------------------------| 0------------------------------|
http://classicalguitartablature.blogspot.com/
E|------------ 0 2-- 0---- 0------|-- 2----------------------------|
B| 0 3 3 0 3----------------------|------ 3-- 0--------------------|
G| 0 0 0 0 0-------------------- 0|------------------------ 0-- 0--|
D| 0 0 0 0 0------------------ 0--|-------------------- 0------ 0--|
A| 0-------------- 0--------------| 0------------ 0----------------|
E|--------------------------------|--------------------------------|
http://classicalguitartablature.blogspot.com/
E|-------- 0 3-------- 2---- 0----| 2------------------------------|
B| 0 3 3-------------- 0-- 3------|-------- 3-------------- 3------|
G| 0---------- 0------------------| 2------ 2-------------- 2------|
D| 0------------------------------|---- 4-------------- 4------ 4--|
A| 0-------------- 0--------------| 5------------ 5 5--------------|
E|--------------------------------|--------------------------------|
http://classicalguitartablature.blogspot.com/
E| 7---------------------------- 3| 2-- 0-- 0---------------- 2-- 3|
B|10------10 9--10-- 8-- 7----10--| 0 0 0-- 0-------------- 0------|
G| 9---- 9-- 9-- 9----------------| 0 0 0-- 0-------------- 0---- 0|
D|---- 7------ 7 7----------------|-------------------- 0----------|
A| 9-------------- 9--------------|--------------------------------|
E|--------------------------------| 0------------ 0 0--------------|
http://classicalguitartablature.blogspot.com/
E|-- 2 0------ 0------------------|------ 8------------------------|
B| 0------ 3---- 3---------- 3 3 7|--10-- 7---------------- 7 5 7--|
G|------------ 4-------- 4------ 7|-- 7-- 7------------------------|
D|-------------------- 4-------- 9|-- 9---------------- 9 9--------|
A| 0-------------- 2--------------|--------------------------------|
E|------------------------------ 0|-- 0-- 0------------------------|
http://classicalguitartablature.blogspot.com/
E|--------------------------------| 0---------- 2------------------|
B| 3---------------------- 3------| 3------ 3-- 3 3----------------|
G| 0------ 0------ 2-- 4------ 4--| 2------ 2------------ 2--------|
D| 0-- 0------ 0------------------|---- 4-------------- 4------ 4--|
A| 0-------------- 0--------------| 5-------------- 5--------------|
E|--------------------------------|--------------------------------|
http://classicalguitartablature.blogspot.com/
E|-------------- 2-- 0-------- 2--|------ 0------------------------|
B|-- 0 0-- 3 0-- 3-------- 3-- 3--|---- 3------ 3-------- 3--------|
G| 2------------ 2------------ 4--|-------------------- 4----------|
D|--------------------------------|--------------------------------|
A| 5-------------- 5--------------|--------------------------------|
E|--------------------------------| 3-------------- 3------ 3 2----|
http://classicalguitartablature.blogspot.com/
E|---------- 0---- 2-- 0---- 0----| 2-- 2-- 3-- 2------------------|
B| 0-- 3-- 3------ 0------ 3 0----| 3-- 3-- 3-- 3------------------|
G| 0-- 0-- 0------ 0--------------| 2-- 2-- 4-- 2---------- 2------|
D| 4-- 4-- 4----------------------|-------------------- 4------ 4--|
A|---------------- 0--------------| 5------ 5-- 5------------------|
E| 0------------------------------|--------------------------------|
http://classicalguitartablature.blogspot.com/
E| 2 0-- 0-- 2--------------------|---- 0-------------- 2----------|
B| 3 3-- 3-- 3-- 3-------- 0-- 3--|---- 3-------- 3-- 3-- 3--------|
G| 0 0-- 2-- 2------------ 0-- 0--|---- 2------ 2------ 2 2---- 2--|
D|------------------ 0-- 0--------|-------- 4---------------- 4-- 4|
A|---------------------- 0--------| 5-------------- 5--------------|
E| 3------ 2------ 0--------------|--------------------------------|
http://classicalguitartablature.blogspot.com/
E|---- 5-- 5----------------------| 0---------- 2------------------|
B| 5-- 5-- 5-- 5-- 7------------ 2| 3---------- 2-- 3--------------|
G| 6-- 6-- 6-- 6-- 6---- 6-- 2----| 2------ 2-- 2-- 2--------------|
D| 7---------- 7-- 7-- 7---- 2----|---- 0---------- 4--------------|
A| 5-------------- 5------ 4------| 2---------- 4-- 5--------------|
E|--------------------------------|--------------------------------|
http://classicalguitartablature.blogspot.com/
0 com

Beth (BASIC)

Kiss' tune fingerstyle chord melody guitar BASIC arrangement played in the key of G.

Beth - Kiss - BASIC ARRANGEMENT played in the key of G.
http://classicalguitartablature.blogspot.com/
E| 3------ 3------ 1 0---------- 1|------ 1-------------------- 1--|
B| 1------ 1------ 1 1-- 3-- 1-- 3|------ 3------ 3 0-- 1-- 3------|
G| 0-- 0------ 0 0 0 0-- 0---- 2--| 2-- 2 2---- 2-- 0-- 0-- 0------|
D|---------------------- 2--------|---------------- 0 0-- 0-- 0-- 0|
A| 3------------------------------| 3------------------------------|
E|--------------------------------|---------------- 3--------------|
http://classicalguitartablature.blogspot.com/
E| 3------ 3---- 1-- 0------------|-- 1---- 1----------------------|
B| 1------ 1-- 1 1-- 1-- 3-- 1----|-- 3---- 3---- 3 1------ 1------|
G| 0-- 0------ 0 0-- 0-- 0-- 0----| 2---- 2---- 2-- 2------ 2------|
D|---------------------- 2-- 2----|---------------- 3-- 3------ 3--|
A| 3------------------------------| 3------------------------------|
E|--------------------------------|---------------- 3--------------|
http://classicalguitartablature.blogspot.com/
http://classicalguitartablature.blogspot.com/
E|------------------ 0---------- 0|-- 0----------------------------|
B|------------ 1 3-------- 3 1 1 0|---- 0 3-- 1---------- 1------ 1|
G| 0-- 0-- 2---- 2---- 2----------| 0-- 0 0-- 0-- 2---- 2------ 2--|
D| 2------------------------------|------ 0-- 0------ 2------ 2----|
A| 3-------------- 3------------ 3|---------------- 0--------------|
E|--------------------------------|------------------------ 3------|
http://classicalguitartablature.blogspot.com/
E|--------------------------------| 0-- 0-------- 0---- 1 0--------|
B| 1 0-- 0------------------ 1 1--| 1-- 1-- 3 1-- 0---- 0-- 3------|
G| 2-- 2---- 2 0 2-- 0---- 0------| 0-- 0-- 0 0-- 2-- 2------------|
D| 3-------------------- 0--------|-- 2---- 2 2------------ 0-- 0--|
A|--------------------------------|--------------------------------|
E| 1-------------- 1--------------| 0-------------- 0------ 0------|
http://classicalguitartablature.blogspot.com/
E|--------------------------------|--------------------------------|
B|---- 1 1 1-- 1 0----------------| 1-- 1-- 1-- 1 0------ 0--------|
G|---- 2-- 2-- 2---- 2 0---- 0 0 0| 2-- 2-- 2-- 2------ 0---- 0 0 5|
D|-- 2-- 2 2-- 2---------- 0------| 3-- 3-- 3-- 3---- 2---------- 4|
A| 0------------------------------|------------------------------ 5|
E|---------------- 3--------------| 1-------------- 0--------------|
http://classicalguitartablature.blogspot.com/
E|--------------------------------|------ 0------------------------|
B|-------------- 0-------------- 0|---- 1------ 1------ 1-------- 0|
G|---- 5-- 5 5-- 2-- 2 0------ 0--| 2-------- 2------ 2-------- 0--|
D|-------------- 3---------- 0----| 2-------------- 2------ 0------|
A|--------------------------------| 0------------------------------|
E|---------------- 1------ 3------|------------------------ 3------|
http://classicalguitartablature.blogspot.com/
E|------ 0-- 0--------------------|------------------ 0---------- 0|
B|---- 1------ 1---------- 1------|------------ 1 3-------- 3 1 1 0|
G| 2---------------------- 0---- 0| 0-- 0-- 2---- 2---- 2----------|
D| 3------------------ 2------ 2--| 2------------------------------|
A|---------------- 3--------------| 3-------------- 3------------ 3|
E| 1------ 3----------------------|--------------------------------|
http://classicalguitartablature.blogspot.com/
E|-- 0----------------------------|--------------------------------|
B|---- 0 3-- 1---------- 1------ 1| 1 0-- 0------------------ 1 1--|
G| 0-- 0 0-- 0-- 2---- 2------ 2--| 2-- 2---- 2 0 2-- 0---- 0------|
D|------ 0-- 0------ 2------ 2----| 3-------------------- 0--------|
A|---------------- 0--------------|--------------------------------|
E|------------------------ 3------| 1-------------- 1--------------|
http://classicalguitartablature.blogspot.com/
E| 0-- 0-------- 0---- 1 0--------|--------------------------------|
B| 1-- 1-- 3 1-- 0---- 0-- 3------|---- 1 1 1-- 1 0----------------|
G| 0-- 0-- 0 0-- 2-- 2------------|---- 2-- 2-- 2---- 2 0---- 0 0 0|
D|-- 2---- 2 2------------ 0-- 0--|-- 2-- 2 2-- 2---------- 0------|
A|--------------------------------| 0------------------------------|
E| 0-------------- 0------ 0------|---------------- 3--------------|
http://classicalguitartablature.blogspot.com/
E|--------------------------------|--------------------------------|
B| 1-- 1-- 1-- 1 0------ 0--------|-------------- 0-------------- 0|
G| 2-- 2-- 2-- 2------ 0---- 0 0 5|---- 5-- 5 5-- 2-- 2 0------ 0--|
D| 3-- 3-- 3-- 3---- 2---------- 4|-------------- 3---------- 0----|
A|------------------------------ 5|--------------------------------|
E| 1-------------- 0--------------|---------------- 1------ 3------|
http://classicalguitartablature.blogspot.com/
E|------ 0------------------------|------ 0-- 0--------------------|
B|---- 1------ 1------ 1-------- 0|---- 1------ 1---------- 1------|
G| 2-------- 2------ 2-------- 0--| 2---------------------- 0---- 0|
D| 2-------------- 2------ 0------| 3------------------ 2------ 2--|
A| 0------------------------------|---------------- 3--------------|
E|------------------------ 3------| 1------ 3----------------------|
http://classicalguitartablature.blogspot.com/
E|------------------ 0---------- 0|-- 0----------------------------|
B|------------ 1 3-------- 3 1 1 0|---- 0 3-- 1---------- 1------ 1|
G| 0-- 0-- 2---- 2---- 2----------| 0-- 0 0-- 0-- 2---- 2------ 2--|
D| 2------------------------------|------ 0-- 0------ 2------ 2----|
A| 3-------------- 3------------ 3|---------------- 0--------------|
E|--------------------------------|------------------------ 3------|
http://classicalguitartablature.blogspot.com/
E|--------------------------------| 3------------ 1-- 0---------- 1|
B| 1 0-- 0-------------------- 1--| 1------ 1---- 1-- 1-- 3-- 1-- 3|
G| 2-- 2---- 2 0 2-- 0---- 0------| 0------ 0---- 0-- 0-- 0---- 2--|
D| 3-------------------- 0--------|---- 2------ 2-------- 2--------|
A|--------------------------------| 3------------------------------|
E| 1-------------- 1--------------|--------------------------------|
http://classicalguitartablature.blogspot.com/
E|------ 1-------------------- 1--| 3------ 3---- 1-- 0------------|
B|------ 3------ 3 0-- 1-- 3------| 1------ 1-- 1 1-- 1-- 3-- 1----|
G| 2-- 2 2---- 2-- 0-- 0-- 0------| 0-- 0------ 0 0-- 0-- 0-- 0----|
D|---------------- 0 0-- 0-- 0-- 0|---------------------- 2-- 2----|
A| 3------------------------------| 3------------------------------|
E|---------------- 3--------------|--------------------------------|
http://classicalguitartablature.blogspot.com/
E|-- 1---- 1----------------------|--------------------------------|
B|-- 3---- 3---- 3 1------ 1------| 1------------------------------|
G| 2---- 2---- 2-- 2------ 2------| 0------------------------------|
D|---------------- 3-- 3------ 3--| 2------------------------------|
A| 3------------------------------| 3------------------------------|
E|---------------- 3--------------|--------------------------------|
http://classicalguitartablature.blogspot.com/
0 com

La Isla Bonita (BASIC)

Madonna's tune fingerstyle chord melody guitar BASIC arrangement played in the key of Am.

La Isla Bonita - Madonna - BASIC ARRANGEMENT played in the key of Am.
http://classicalguitartablature.blogspot.com/
E|--------------------------------|--------------------------------|
B| 5------------------------------|--------------------------------|
G| 5-------------- 0 0------ 0----| 5-------- 5---- 5-- 5---- 5----|
D| 7 7------ 7---- 0 0------ 0----| 7-- 7---- 7---- 7-- 7---- 7----|
A|------------ 7-------- 2---- 5--|------------ 7-------------- 7--|
E| 5-- 8---------- 3--------------| 5---- 8-------- 5---- 8--------|
http://classicalguitartablature.blogspot.com/
E|--------------------------------|--------------------------------|
B|--------------------------------|--------------------------------|
G| 5-- 5---------- 0 0------ 0----| 5-------- 5---- 5-- 5---- 5----|
D| 7-- 7---- 7---- 0 0------ 0----| 7-- 7---- 7---- 7-- 7---- 7----|
A|------------ 7-------- 2---- 5--|------------ 7-------------- 7--|
E| 5---- 8-------- 3--------------| 5---- 8-------- 5---- 8--------|
http://classicalguitartablature.blogspot.com/
http://classicalguitartablature.blogspot.com/
E|--------------------------------|--------------------------------|
B|---------------- 0-- 0------ 3--| 1 0-- 1------------------------|
G| 2---------- 2-- 0---- 0 0-- 4--| 2 2-- 2-------------------- 2--|
D|---- 2 2---------- 0-------- 5--| 2 2-- 2------------ 2------ 2--|
A| 0---------- 0-------- 2---- 5--| 0---------- 0-- 0---------- 0--|
E|------ 0-------- 3--------------|------ 0-------------- 0--------|
http://classicalguitartablature.blogspot.com/
E|---------------------------- 0--| 0---------- 0------------------|
B|------ 1-------- 1------ 3------| 1-- 1-- 1-- 1-- 3--------------|
G| 2---- 2-------- 2------ 2-- 2--| 0-- 0-- 0-- 0-- 4-- 4-- 4------|
D| 3-------------- 2------ 2------|---- 2-- 2------ 5-- 5-- 5------|
A|---- 3---------- 0---------- 0--| 3---------- 3-------- 5--------|
E| 1---------- 1------ 0----------|------ 3-------- 3---------- 3--|
http://classicalguitartablature.blogspot.com/
E|--------------------------------|--------------------------------|
B|---------------- 0-- 0------ 3--| 1 0-- 1------------------------|
G| 2---------- 2-- 0---- 0 0-- 4--| 2 2-- 2-------------------- 2--|
D|---- 2 2---------- 0-------- 5--| 2 2-- 2------------ 2------ 2--|
A| 0---------- 0-------- 2---- 5--| 0---------- 0-- 0---------- 0--|
E|------ 0-------- 3--------------|------ 0-------------- 0--------|
http://classicalguitartablature.blogspot.com/
E|---------------------------- 0--| 0---------- 0------------------|
B|------ 1-------- 1------ 3------| 1-- 1-- 1-- 1-- 3--------------|
G| 2---- 2-------- 2------ 2-- 2--| 0-- 0-- 0-- 0-- 4-- 4-- 4------|
D| 3-------------- 2------ 2------|---- 2-- 2------ 5-- 5-- 5------|
A|---- 3---------- 0---------- 0--| 3---------- 3-------- 5--------|
E| 1---------- 1------ 0----------|------ 3-------- 3---------- 3--|
http://classicalguitartablature.blogspot.com/
E|--------------------------------|--------------------------------|
B| 1 1-- 1---- 1-- 1 0-- 0--------| 3 3-- 3---- 3-- 3 1-- 1--------|
G| 2 2-- 2---- 2-- 0 0-- 0--------| 5 5-- 5---- 5-- 2 2-- 2--------|
D| 2 2-- 2---- 2-- 2 2-- 2--------| 3 3-- 3---- 3-- 2 2-- 2--------|
A| 0---------- 0-------- 2--------| 5---- 0---- 5-- 0---------- 0--|
E|------ 0-------- 0---------- 0--|---------------------- 0--------|
http://classicalguitartablature.blogspot.com/
E|--------------------------------|--------------------------------|
B|-- 0-- 0-------- 0--------------|------------ 0-- 1 0-- 1--------|
G| 5 5-- 5---- 5-- 2 2-- 2--------| 2 2-- 2-------- 2 2-- 2--------|
D| 5---------- 5-- 3 3-- 3--------| 3 3-- 3---- 2-- 2 2-- 2--------|
A|------ 5-------- 5---- 0---- 5--| 5---- 0-------- 0---------- 0--|
E| 3---------- 3------------------|------------ 0-------- 0--------|
http://classicalguitartablature.blogspot.com/
E|--------------------------------|--------------------------------|
B|---- 1-- 1-- 1-- 1 0-- 0--------| 3 3-- 3---- 3-- 3 1-- 1--------|
G|---- 2-- 2-- 2-- 0 0-- 0--------| 5 5-- 5---- 5-- 2 2-- 2--------|
D|---- 2-- 2-- 2-- 2 2-- 2--------| 3 3-- 3---- 3-- 2 2-- 2--------|
A| 0---------- 0-------- 2--------| 5---- 0---- 5-- 0---------- 0--|
E|------ 0-------- 0---------- 0--|---------------------- 0--------|
http://classicalguitartablature.blogspot.com/
E|--------------------------------|--------------------------------|
B|-- 0-- 0-------- 0--------------| 3------------------------------|
G| 5 5-- 5---- 5-- 2 2-- 2--------| 5-- 5-- 0-- 0-- 2--------------|
D| 5---------- 5-- 3 3-- 3--------| 3-- 3-- 2-- 2------ 2----------|
A|------ 5-------- 5---- 0---- 5--| 5-------------- 0---------- 0--|
E| 3---------- 3------------------|-------- 0------------ 0--------|
http://classicalguitartablature.blogspot.com/
E|-- 5 5 5-- 3 3------------------| 0------------------------------|
B|---------------- 6 5 3 3-- 5 6--| 1-------------------- 0 1-- 3--|
G|------------------ 4 4---- 4 4--| 2------------------ 2------ 2--|
D|-------------------- 3------ 3--|---------------- 2-- 2------ 2--|
A| 0------------ 0---- 5----------| 0-------- 0-- 0---------- 0----|
E|---- 0---------- 3---------- 3--|---- 0-------------- 0----------|
http://classicalguitartablature.blogspot.com/
E|--------------------------------|---------------------------- 0 3|
B|-- 1-- 0-- 1-- 5-- 3------------|---------------------- 0 1 3----|
G|-- 2-- 2-- 2-- 4-- 4---- 5 4-- 2|------------------ 1 2----------|
D|---- 2---- 2-- 5-- 5------------|--------------------------------|
A| 0---------- 0-------- 5--------| 0---------- 0-- 0---------- 0--|
E|---- 0---------- 3---------- 3--|------ 0-------------- 0--------|
http://classicalguitartablature.blogspot.com/
E|-------------------- 0---- 1-- 0|--------------------------------|
B| 6---- 5------ 3---------- 3----| 1-- 3---- 1-- 3---------- 3 5--|
G| 7---- 7-- 7---- 3-- 3---- 3----| 0-- 0---- 0---- 0-------- 0----|
D| 7---- 7-- 7---- 3--------------|---- 2---- 2---- 0-------- 0----|
A| 5-------- 5---- 1-------- 1----| 3-------- 3-------- 5----------|
E|------ 5------------ 1----------|---- 3---------- 3-------- 3----|
http://classicalguitartablature.blogspot.com/
E|---------------- 3-------- 1----| 0---- 0---- 1-- 0--------------|
B| 6-- 5---------- 3---- 3---- 3--| 1---- 1---- 1-- 1-- 1---- 1----|
G| 7-- 7------ 7-------- 3--------| 0---- 0-------- 0-- 0---- 0----|
D| 7-- 7------ 7------------------|-------------------- 2---- 2----|
A| 5---------- 5-- 1---------- 1--| 3---------- 3-- 3---------- 3--|
E|------ 5-------------- 1--------|------ 3-------------- 3--------|
http://classicalguitartablature.blogspot.com/
E|-------------------- 0---- 1-- 0|--------------------------------|
B| 6---- 5------ 3---------- 3----| 1-- 3---- 1-- 3---------- 3 5--|
G| 7---- 7-- 7---- 3-- 3---- 3----| 0-- 0---- 0---- 0-------- 0----|
D| 7---- 7-- 7---- 3--------------|---- 2---- 2---- 0-------- 0----|
A| 5-------- 5---- 1-------- 1----| 3-------- 3-------- 5----------|
E|------ 5------------ 1----------|---- 3---------- 3-------- 3----|
http://classicalguitartablature.blogspot.com/
E|-------------------- 0---- 1----| 0------------------------------|
B| 6-- 5-------- 3---------- 3----| 1------------------------------|
G| 7-- 7------ 7-- 3-- 3---- 3----| 0------------------------------|
D| 7-- 7------ 7-- 3--------------|---- 2---- 2-------- 2---- 2----|
A| 5---------- 5-- 1-------- 1----| 3---------- 3-- 3---------- 3--|
E|------ 5------------ 1----------|------ 3-------------- 3--------|
http://classicalguitartablature.blogspot.com/
E|--------------------------------|--------------------------------|
B|--------------------------------| 1 1-- 1---- 1-- 1 0-- 0--------|
G| 0-------------- 1---------- 1--| 2 2-- 2---- 2-- 0 0-- 0--------|
D| 2-------------------- 2--------| 2 2-- 2---- 2-- 2 2-- 2--------|
A| 3---------- 3-------- 2--------| 0---------- 0-------- 2--------|
E|------ 3-------- 0---------- 0--|------ 0-------- 0---------- 0--|
http://classicalguitartablature.blogspot.com/
E|--------------------------------|--------------------------------|
B| 3 3-- 3---- 3-- 3 1-- 1--------|-- 0-- 0-------- 0--------------|
G| 5 5-- 5---- 5-- 2 2-- 2--------| 5 5-- 5---- 5-- 2 2-- 2--------|
D| 3 3-- 3---- 3-- 2 2-- 2--------| 5---------- 5-- 3 3-- 3--------|
A| 5---- 0---- 5-- 0---------- 0--|------ 5-------- 5---- 0---- 5--|
E|---------------------- 0--------| 3---------- 3------------------|
http://classicalguitartablature.blogspot.com/
E|--------------------------------|--------------------------------|
B|------------ 0-- 1 0-- 1--------|---- 1-- 1-- 1-- 1 0-- 0--------|
G| 2 2-- 2-------- 2 2-- 2--------|---- 2-- 2-- 2-- 0 0-- 0--------|
D| 3 3-- 3---- 2-- 2 2-- 2--------|---- 2-- 2-- 2-- 2 2-- 2--------|
A| 5---- 0-------- 0---------- 0--| 0---------- 0-------- 2--------|
E|------------ 0-------- 0--------|------ 0-------- 0---------- 0--|
http://classicalguitartablature.blogspot.com/
E|--------------------------------|--------------------------------|
B| 3 3-- 3---- 3-- 3 1-- 1--------|-- 0-- 0-------- 0--------------|
G| 5 5-- 5---- 5-- 2 2-- 2--------| 5 5-- 5---- 5-- 2 2-- 2--------|
D| 3 3-- 3---- 3-- 2 2-- 2--------| 5---------- 5-- 3 3-- 3--------|
A| 5---- 0---- 5-- 0---------- 0--|------ 5-------- 5---- 0---- 5--|
E|---------------------- 0--------| 3---------- 3------------------|
http://classicalguitartablature.blogspot.com/
E|--------------------------------|--------------------------------|
B| 3------------------------------|--------------------------------|
G| 5-- 5-- 0-- 0-- 2--------------| 5-- 5---------- 0 0------ 0----|
D| 3-- 3-- 2-- 2------ 2----------| 7-- 7---- 7---- 0 0------ 0----|
A| 5-------------- 0---------- 0--|------------ 7-------- 2---- 5--|
E|-------- 0------------ 0--------| 5---- 8-------- 3--------------|
http://classicalguitartablature.blogspot.com/
E|--------------------------------|--------------------------------|
B|--------------------------------|--------------------------------|
G| 5-------- 5---- 5-- 5---- 5----| 5-- 5---------- 0 0------ 0----|
D| 7-- 7---- 7---- 7-- 7---- 7----| 7-- 7---- 7---- 0 0------ 0----|
A|------------ 7-------------- 7--|------------ 7-------- 2---- 5--|
E| 5---- 8-------- 5---- 8--------| 5---- 8-------- 3--------------|
http://classicalguitartablature.blogspot.com/
E|--------------------------------|--------------------------------|
B|-- 1----------------------------|--------------------------------|
G| 2------------------------------|--------------------------------|
D| 2------------------------------|--------------------------------|
A| 0------------------------------|--------------------------------|
E|--------------------------------|--------------------------------|
http://classicalguitartablature.blogspot.com/
0 com

Collide (BASIC)

Howie Day's tune fingerstyle chord melody guitar BASIC arrangement played in the key of C.

Collide - Howie Day - BASIC ARRANGEMENT played in the key of C.
http://classicalguitartablature.blogspot.com/
E|--------------------------------|--------------------------------|
B|-------- 1-- 1------ 0------ 1--|-------- 1-- 1---- 0-------- 1--|
G|------ 0 0-- 0------ 0------ 0--|------ 0 0-- 0---- 0-------- 0--|
D|---- 2-- 2-- 2------ 0-- 0-- 2--|---- 2-- 2-- 2---- 0---- 0-- 2--|
A| 3-------------- 3--------------| 2-------------- 2--------------|
E|--------------------------------|--------------------------------|
http://classicalguitartablature.blogspot.com/
E|--------------------------------|--------------------------------|
B|------ 1 1-- 1---- 0-------- 1--|-------- 1-- 1---- 0-------- 1--|
G|------ 0 0-- 0---- 0-------- 2--|------ 2 2-- 2---- 0-------- 0--|
D|---- 2-- 2-- 2---- 0---- 0-- 2--|---- 2-- 2-- 2---- 0---- 0-- 2--|
A| 0-------------- 0--------------|--------------------------------|
E|--------------------------------| 1-------------- 1--------------|
http://classicalguitartablature.blogspot.com/
http://classicalguitartablature.blogspot.com/
E|--------------------------------|--------------------------------|
B|------ 1------ 1---- 0------ 1--|-------- 1-- 1---- 0-------- 1--|
G|---- 0 0------ 0---- 0------ 0--|------ 0 0-- 0---- 0-------- 0--|
D|---- 2 2------ 2---- 0-- 0-- 2--|---- 2-- 2-- 2---- 0---- 0-- 2--|
A| 3-------------- 3--------------| 2-------------- 2--------------|
E|--------------------------------|--------------------------------|
http://classicalguitartablature.blogspot.com/
E|--------------------------------|--------------------------------|
B|------ 1 1-- 1---- 0-------- 1--|-------- 1-- 1---- 0-------- 1--|
G|------ 0 0-- 0---- 0-------- 2--|------ 2 2-- 2---- 0-------- 0--|
D|---- 2-- 2-- 2---- 0---- 0-- 2--|---- 2-- 2-- 2---- 0---- 0-- 2--|
A| 0-------------- 0--------------|--------------------------------|
E|--------------------------------| 1-------------- 1--------------|
http://classicalguitartablature.blogspot.com/
E|--------------------------------|--------------------------------|
B|-------- 1-- 1------------------|---------------- 0--------------|
G|-------- 0-- 0------ 0----------|---------- 0-------- 0------ 0--|
D|---- 2---------------------- 2--|---- 0------------------ 0------|
A| 3------------------------------| 2------------------------------|
E|--------------------------------|--------------------------------|
http://classicalguitartablature.blogspot.com/
E|--------------------------------|--------------------------------|
B|-------- 1-- 1------------------|--------------------------------|
G|-------- 2-- 2------ 0----------|--------------------------------|
D|---- 2-- 2-- 2-------------- 2--|-------------------- 0----------|
A| 0------------------------------|---- 3------ 3------------------|
E|--------------------------------| 1------------------------------|
http://classicalguitartablature.blogspot.com/
E|--------------------------------|--------------------------------|
B|-------- 1-- 1------------------|---------------- 0--------------|
G|-------- 0-- 0------ 0----------|---------- 0-------- 0------ 0--|
D|---- 2---------------------- 2--|---- 0------------------ 0------|
A| 3------------------------------| 2------------------------------|
E|--------------------------------|--------------------------------|
http://classicalguitartablature.blogspot.com/
E|--------------------------------|--------------------------------|
B|-------- 1-- 1------------------|--------------------------------|
G|-------- 2-- 2------ 0----------|--------------------------------|
D|---- 2-- 2-- 2-------------- 2--|-------------------- 0----------|
A| 0------------------------------|---- 3------ 3------------------|
E|--------------------------------| 1------------------------------|
http://classicalguitartablature.blogspot.com/
E|--------------------------------|--------------------------------|
B|-------- 1-- 1------------------|---------------- 0--------------|
G|-------- 0-- 0------ 0----------|---------- 0-------- 0------ 0--|
D|---- 2---------------------- 2--|---- 0------------------ 0------|
A| 3------------------------------| 2------------------------------|
E|--------------------------------|--------------------------------|
http://classicalguitartablature.blogspot.com/
E|--------------------------------|--------------------------------|
B|-------- 1-- 1------------------|--------------------------------|
G|-------- 2-- 2------ 0----------|--------------------------------|
D|---- 2-- 2-- 2-------------- 2--|-------------------- 0----------|
A| 0------------------------------|---- 3------ 3------------------|
E|--------------------------------| 1------------------------------|
http://classicalguitartablature.blogspot.com/
E|--------------------------------|---- 0--------------------------|
B|-------- 1-- 1-------------- 3--|------------ 3------ 1----------|
G|-------- 0-- 0------ 0------ 0--|------------ 0-------------- 0--|
D|---- 2--------------------------|------------------------ 0------|
A| 3------------------------------| 2-------------- 2--------------|
E|--------------------------------|--------------------------------|
http://classicalguitartablature.blogspot.com/
E| 0------------------------------|---------------------------- 0--|
B| 1-- 3------ 1------ 0------ 1--|---------- 1---------- 1 3------|
G| 0-- 0------ 0-------------- 2--|------ 2------------------------|
D|---- 2------ 2-------------- 3--|---- 3-------------- 3----------|
A| 0-------------- 0--------------|--------------------------------|
E|--------------------------------| 1-------------- 1--------------|
http://classicalguitartablature.blogspot.com/
E| 0---------- 3------------------|-------------------------- 0----|
B| 1-- 3------ 1------ 3-- 1-- 3--|---------- 3---------- 1 3------|
G| 0-- 0------ 0------ 0-- 0------|-------- 0----------------------|
D|---- 2-- 2---------- 2-- 2------|---- 0------------ 0------------|
A| 3-------------- 3--------------| 2------------ 2----------------|
E|--------------------------------|--------------------------------|
http://classicalguitartablature.blogspot.com/
E| 0---------- 3------------------|-------------------------- 0----|
B| 1-- 3------ 1------ 3-- 1-- 1--|------------ 1-------- 1 3------|
G| 0-- 0-------------- 0-- 0-- 2--|-------- 2----------------------|
D|---- 2-- 2---------- 2-- 2------|---- 3-------------- 3----------|
A| 0-------------- 0--------------|--------------------------------|
E|--------------------------------| 1-------------- 1--------------|
http://classicalguitartablature.blogspot.com/
E| 0---------- 3------------------|--------------------------------|
B| 1-- 3------ 1------ 3-- 1-- 3--|---------------------------- 1--|
G| 0-- 0------ 0------ 0-- 0-- 0--|-------- 0-------- 0-------- 2--|
D|---- 2-- 2---------- 2-- 2-- 0--|---- 0------ 0---------- 0-- 2--|
A| 3-------------- 3--------------| 2------------ 2----------------|
E|--------------------------------|--------------------------------|
http://classicalguitartablature.blogspot.com/
E|---------------------------- 0--|--------------------------------|
B|-- 3-------- 1------------------|---- 3------ 1------ 0------ 1--|
G|---- 2------ 2---------- 2-- 2--|---- 2------ 0------ 0----------|
D|---- 2-- 2---------- 2----------|---- 3-- 3-- 0---------- 0------|
A| 0-------------- 0--------------|--------------------------------|
E|--------------------------------| 1-------------- 3--------------|
http://classicalguitartablature.blogspot.com/
E|------------------------------ 0|--------------------------------|
B|--------------------------------|---- 3------ 1------------------|
G|-------- 2-------- 2------------|--------------------------------|
D|---- 2-------- 3----------------|---------------------------- 2--|
A| 0------------------------------|------------------------ 0------|
E|---------- 1---------- 3--------|--------------------------------|
http://classicalguitartablature.blogspot.com/
E|---------------------------- 3--|---- 5------ 0------------------|
B|--------------------------------|--------------------------------|
G| 2-------- 2------------ 0------|------------------------ 2------|
D|------ 3------------------------|------------------ 2------------|
A|--------------------------------|---------------- 0--------------|
E|-- 1------------ 3--------------|---------------------------- 1--|
http://classicalguitartablature.blogspot.com/
E|---------------------------- 0--|--------------------------------|
B|--------------------------------|------ 3------------ 1----------|
G|-- 2------ 0--------------------|--------------------------------|
D| 3------ 0----------------------|--------------------------------|
A|--------------------------------|--------------------------------|
E|-------- 3----------------------|--------------------------------|
http://classicalguitartablature.blogspot.com/
E|--------------------------------|--------------------------------|
B| 1-- 1 1-- 1------ 0-------- 1--|------ 1---- 1-------------- 1--|
G| 0-- 0 0-- 0------ 0-------- 0--|------ 0 0-- 0---- 0-------- 0--|
D| 2-- 2 2-- 2------ 0---- 0-- 2--|---- 2-- 2-- 2---------- 0-- 2--|
A| 3------------ 3----------------| 2-------------- 2--------------|
E|--------------------------------|--------------------------------|
http://classicalguitartablature.blogspot.com/
E|---------------------------- 0--|--------------------------------|
B|---- 3------ 1-------------- 1--|---- 3------ 1---- 0-------- 1--|
G|---- 0------ 0---------- 0-- 2--|---- 2------ 2---- 2-------- 0--|
D|---- 2------ 2------ 2----------|---- 3-- 3-- 3---------- 3-- 2--|
A| 0-------------- 0--------------|--------------------------------|
E|--------------------------------| 1------------ 1----------------|
http://classicalguitartablature.blogspot.com/
E|--------------------------------|--------------------------------|
B|-------- 1-- 1---- 0-------- 1--|------ 1---- 1-------------- 1--|
G|------ 0 0 0------ 0-------- 0--|------ 0 0-- 0---- 0-------- 0--|
D|-- 2---- 2 2-------- 0-- 0-- 2--|---- 2-- 2-- 2---------- 0-- 2--|
A| 3-------------- 3--------------| 2-------------- 2--------------|
E|--------------------------------|--------------------------------|
http://classicalguitartablature.blogspot.com/
E|---------------------------- 0--|--------------------------------|
B|---- 3------ 1-------------- 1--|---- 3------ 1---- 0-------- 1--|
G|---- 0------ 0---------- 0-- 2--|---- 2------ 2---- 2-------- 0--|
D|---- 2------ 2------ 2----------|---- 3-- 3-- 3---------- 3-- 2--|
A| 0-------------- 0--------------|--------------------------------|
E|--------------------------------| 1------------ 1----------------|
http://classicalguitartablature.blogspot.com/
E|--------------------------------|--------------------------------|
B|--------------------------------|--------------------------------|
G|--------------------------------|--------------------------------|
D|--------------------------------|--------------------------------|
A| 3------------------------------|--------------------------------|
E|--------------------------------|--------------------------------|
http://classicalguitartablature.blogspot.com/
0 com

The Irish Famine - The Fields Of Athenry (BASIC)

Popular Irish's tune fingerstyle chord melody guitar BASIC arrangement played in the key of C.

The Irish Famine - The Fields of Athenry - BASIC ARRANGEMENT played in the key of C.
http://classicalguitartablature.blogspot.com/
E|-------- 0---- 1 0--------------|--------------------------------|
B| 3 3------------ 3-- 3---- 1 0--| 1---- 1------ 1 1---- 1------ 1|
G| 0---- 0------------------------| 0-- 0------ 2------ 0------ 0--|
D| 0-- 0------------ 0-- 0--------|-- 2------ 3------ 2------ 2----|
A|--------------------------------| 3------ 3------ 3------ 3------|
E| 3---- 3-------- 3------ 3------|--------------------------------|
http://classicalguitartablature.blogspot.com/
E|-------------- 0-------------- 0| 1-- 1---- 1 3 0---------- 1 0--|
B|---------- 1 3 1----------------| 1-- 1---- 1 1-------- 1-- 1 1 1|
G| 0-- 0---- 0 0------ 0------ 0--| 2 2-- 2-- 2 2------ 0---- 0----|
D|-- 2-- 2-- 2 2---- 2-- 2-- 2----|------------------ 2------------|
A| 3------ 3---- 3-------- 3------|---------------- 3------ 3------|
E|--------------------------------| 1------ 1----------------------|
http://classicalguitartablature.blogspot.com/
http://classicalguitartablature.blogspot.com/
E|--------------------------------| 3 3-- 3------ 0 1---- 3 1 0----|
B| 3------------------------------| 1 1-- 1-- 1---- 1-- 1-- 1---- 3|
G|---- 0------ 0------ 0------ 0--| 0 0-- 0-- 0---- 2 2---- 2------|
D|-- 0-- 0-- 0-- 0-- 0-- 0-- 0-- 0|--------------------------------|
A|--------------------------------| 3------ 3----------------------|
E| 3------ 3------ 3------ 3------|---------------- 1------ 1------|
http://classicalguitartablature.blogspot.com/
E|-------------------------- 0 1--| 3 3-- 3------ 0 1---------- 3 1|
B|--------------------------------| 1 1------------ 1---- 1--------|
G|---- 0------ 0------ 0----------| 0 0-------- 0-- 2-- 2----------|
D|-- 0-- 0-- 0-- 0-- 0-- 0-- 0----|---------- 2------ 3------ 3----|
A|--------------------------------| 3------ 3----------------------|
E| 3------ 3------ 3------ 3------|---------------- 1------ 1------|
http://classicalguitartablature.blogspot.com/
E| 0------------ 0----------------|-------- 0-- 1-- 0--------------|
B| 1---- 3 1 3---- 3---- 3------ 3|-- 3------------ 3-- 3---- 1 0--|
G|---- 0-- 0---------- 0------ 0 0| 0---- 0------------------------|
D|-- 2---- 2-- 2 0-- 0------ 0----| 0-- 0------------ 0-- 0--------|
A| 3------ 3----------------------|--------------------------------|
E|---------------- 3------ 3------| 3---- 3-------- 3------ 3------|
http://classicalguitartablature.blogspot.com/
E|--------------------------------| 3-------------- 5--------------|
B| 1---- 1------ 1 1---- 1------ 1| 1---- 1------ 1------ 6------ 8|
G| 0-- 0------ 2------ 0------ 0--|---- 0------ 0------ 5------ 5--|
D|-- 2------ 3------ 2------ 2----|-- 2------ 2------ 7------ 7----|
A| 3------ 3------ 3------ 3------| 3------ 3------ 8------ 8------|
E|--------------------------------|--------------------------------|
http://classicalguitartablature.blogspot.com/
E|---------------- 0--------------|-------------- 0---- 0 1 3------|
B| 1---- 1-- 1 3-------- 1-- 1-- 3| 1---- 1---- 1 3------ 1------ 3|
G|---- 0---- 0-------- 2------ 2--|---- 0---- 0-------- 2 2---- 2--|
D|-- 2-------------- 2------ 2----|-- 2-------------- 2------ 2----|
A| 3------ 3------ 0------ 0------| 3------ 3------ 0------ 0------|
E|--------------------------------|--------------------------------|
http://classicalguitartablature.blogspot.com/
E|---------------------------- 0 1| 3 3-- 3------ 0 1---------- 3 1|
B|------ 3-------------- 3--------| 1 1------------ 1---- 1--------|
G|---- 0------ 0------ 0----------| 0 0-------- 0-- 2-- 2----------|
D|-- 0------ 0-- 0-- 0------ 0----|---------- 2------ 3------ 3----|
A|--------------------------------| 3------ 3----------------------|
E| 3------ 3------ 3------ 3------|---------------- 1------ 1------|
http://classicalguitartablature.blogspot.com/
E| 0------------ 0----------------|-------- 0-- 1-- 0--------------|
B| 1---- 3 1 3---- 3---- 3------ 3|-- 3------------ 3-- 3---- 1 0--|
G|---- 0-- 0---------- 0------ 0 0| 0---- 0------------------------|
D|-- 2---- 2-- 2 0-- 0------ 0----| 0-- 0------------ 0-- 0--------|
A| 3------ 3----------------------|--------------------------------|
E|---------------- 3------ 3------| 3---- 3-------- 3------ 3------|
http://classicalguitartablature.blogspot.com/
E|--------------------------------|---------- 0-- 1 0--------------|
B| 1---- 1------ 1 1---- 1------ 1| 3 3------ 3---- 1-- 3----------|
G| 0-- 0------ 2------ 0------ 0--| 0------ 0------ 2-- 0-- 5---- 4|
D|-- 2------ 3------ 2------ 2----|------ 0---------- 3 2 2---- 3--|
A| 3------ 3------ 3------ 3------|------------------------ 5---- 4|
E|--------------------------------| 3-------------- 1-- 0----------|
http://classicalguitartablature.blogspot.com/
E|--------------------------------|--------------------------------|
B|---------------------- 1--------|--------------------------------|
G|-------------------- 0----------|--------------------------------|
D|-- 3---------------- 2----------|--------------------------------|
A|-------------------- 3----------|--------------------------------|
E|--------------------------------|--------------------------------|
http://classicalguitartablature.blogspot.com/
0 com

Cherish (BASIC)

Kool And The Gang's tune fingerstyle chord melody guitar BASIC arrangement played in the key of Am.

Cherish - Kool And The Gang - BASIC ARRANGEMENT played in the key of Am.
http://classicalguitartablature.blogspot.com/
E| 8------ 7---- 8------ 7--------| 8------ 7------ 8-- 7 5--------|
B| 5-- 5------ 5------ 5------ 5--| 5-- 5------ 5-------------- 8--|
G| 5------------------------------| 5------------------------------|
D|--------------------------------|--------------------------------|
A| 0------------------------------| 0------------------------------|
E|--------------------------------|--------------------------------|
http://classicalguitartablature.blogspot.com/
E| 5-------------- 5--------------| 5------------ 5----------------|
B|-------- 8-------------- 8------|-------- 8-------- 8-- 6---- 5--|
G|---- 5------ 5------ 5------ 5--|---- 5------ 5------------------|
D|--------------------------------|--------------------------------|
A| 8------------------------------| 8------------------------------|
E|--------------------------------|--------------------------------|
http://classicalguitartablature.blogspot.com/
http://classicalguitartablature.blogspot.com/
E|--------------------------------|--------------------------------|
B| 6------ 5------ 6---- 5------ 6|------ 5-------- 6-- 5----------|
G| 5---------------------------- 5|------------------------ 7-- 5--|
D|---- 7------ 7---- 7-------- 7--|---- 7------ 7------------------|
A| 5------------------------------| 5------------------------------|
E|--------------------------------|--------------------------------|
http://classicalguitartablature.blogspot.com/
E|--------------------------------|--------------------------------|
B| 1---------- 1------------------| 0---------- 0------------------|
G|-------- 2-------------- 2------|-------- 0------------------ 0--|
D|---- 3-------------- 3----------|---- 0------------------ 0------|
A|--------------------------------|--------------------------------|
E| 1------------------------------| 3------------------------------|
http://classicalguitartablature.blogspot.com/
E|--------------------------------|--------------------------------|
B| 1-- 1-- 1-- 1 3-- 1------------| 0---- 1---- 0-- 0-- 1----------|
G| 0-- 0-- 0-- 0 0-- 0-------- 0--| 0---- 0---- 0-- 0-- 0----------|
D| 2-- 2-- 2-- 2 2-- 2---- 2------| 2---- 2---- 2-- 2-- 2------ 2--|
A| 0------------------------------| 0------------------------------|
E|--------------------------------|--------------------------------|
http://classicalguitartablature.blogspot.com/
E|--------------------------------|--------------------------------|
B|-------- 1-- 1 1----------------|--------------------------------|
G|-------- 2-- 2 2-------- 2 2 2--|-------- 2------------------ 0--|
D|---- 3-- 3-- 3 3---- 3----------|---- 3------ 3------ 3----------|
A|--------------------------------|--------------------------------|
E| 1------------------------------| 1-------------- 1------ 3------|
http://classicalguitartablature.blogspot.com/
E|--------------------------------|--------------------------------|
B| 1-- 1-- 1-- 1 3-- 1------------| 0---- 1---- 0-- 0-- 1----------|
G| 0-- 0-- 0-- 0 0-- 0-------- 0--| 0---- 0---- 0-- 0-- 0----------|
D| 2-- 2-- 2-- 2 2-- 2---- 2------| 2---- 2---- 2-- 2-- 2------ 2--|
A| 0------------------------------| 0------------------------------|
E|--------------------------------|--------------------------------|
http://classicalguitartablature.blogspot.com/
E|--------------------------------|--------------------------------|
B|-------- 1-- 1 1----------------|--------------------------------|
G|-------- 2 2-- 2-------- 2-- 2 2|-------- 2---------- 2----------|
D|---- 3-- 3 3-- 3---- 3----------|---- 3------ 3-------------- 2--|
A|--------------------------------|--------------------------------|
E| 1------------------------------| 1-------------- 1------ 0------|
http://classicalguitartablature.blogspot.com/
E|--------------------------------|--------------------------------|
B|---------------------- 0---- 1--|------------ 1-- 0---- 1---- 3--|
G|-------- 2------ 2--------------| 2------ 2----------------------|
D|---- 3---------- 3--------------|---- 3--------------------------|
A| 5---------- 5-- 5--------------| 5-------------- 5--------------|
E|--------------------------------|--------------------------------|
http://classicalguitartablature.blogspot.com/
E|--------------------------------|--------------------------------|
B|---- 0------------------------ 0|--------------------------------|
G|-------- 2 0------------ 0-- 0 0|---- 0 2-- 0------------ 0-- 0--|
D|------------------ 0---------- 0|------------------ 0------------|
A|--------------------------------|--------------------------------|
E| 0-------------- 0------------ 0|---------------- 0--------------|
http://classicalguitartablature.blogspot.com/
E|--------------------------------|--------------------------------|
B| 1-- 1-- 1-- 1 3-- 1-------- 1--| 0---- 1---- 0-- 0-- 1------ 0--|
G| 2-- 2-- 2-- 2 2-- 2-------- 2 2|------ 2---- 2-- 2-- 2-- 2------|
D| 3-- 3-- 3-- 3 3-- 3-- 3--------| 3---- 3---- 3-- 3-- 3----------|
A|--------------------------------|--------------------------------|
E| 1------------------------------| 1-------------- 1--------------|
http://classicalguitartablature.blogspot.com/
E|------------ 0------ 1----------|--------------------------------|
B| 1------ 3-- 3------ 3------ 3--|---------------------------- 3--|
G| 2------ 2------------------ 2--|-------- 2-------------- 2------|
D| 3-- 3------------------ 3------|---- 3------ 3------ 3----------|
A|--------------------------------|--------------------------------|
E| 3-------------- 3--------------| 3-------------- 3--------------|
http://classicalguitartablature.blogspot.com/
E|--------------------------------|--------------------------------|
B| 3-- 5-- 5-- 5------ 3------ 5--|------------ 5-- 3------ 5------|
G| 4-- 5-- 5-- 5------ 4------ 5--|-------- 5------ 4------ 3------|
D| 5-- 5-- 5-- 5------ 5------ 5--|-- 5------------ 5-- 5-- 5-- 5--|
A| 0-------------- 0--------------| 0-------------- 0------ 4------|
E|--------------------------------|--------------------------------|
http://classicalguitartablature.blogspot.com/
E|--------------------------------|--------------------------------|
B| 5-- 6-- 6-- 6------ 5------ 6--|------------ 6------------------|
G| 5-- 5-- 5-- 5------ 5------ 5--|------ 5---------------- 5------|
D| 5-- 7-- 7-- 7------ 5------ 7--|---- 7-------------- 7------ 7--|
A| 5-------------- 5--------------| 5------------ 5----------------|
E|--------------------------------|--------------------------------|
http://classicalguitartablature.blogspot.com/
E| 1-- 1-- 1-- 1------------------| 1-- 1-- 1-- 1------------------|
B| 1-- 1-- 1-- 1------------------| 1-- 1-- 1-- 1------------------|
G| 2-- 2-- 2-- 2---------- 2------| 2-- 2-- 2-- 2---------- 2------|
D|-------------------- 3------ 3--|-------------------- 3------ 3--|
A|--------------------------------|--------------------------------|
E| 3-------------- 3--------------| 3-------------- 3--------------|
http://classicalguitartablature.blogspot.com/
E|--------------------------------|---- 0-- 0-- 0------------------|
B| 3-- 5-- 5-- 5------------------| 3-- 3-- 3-- 3------------------|
G| 4-- 4-- 4-- 4---------- 4------| 1-- 1-- 1-- 1---------- 1------|
D| 5-- 5-- 5-- 5------ 5------ 5--| 0------------------ 0------ 0--|
A| 3-------------- 3--------------|--------------------------------|
E|--------------------------------| 0-------------- 0--------------|
http://classicalguitartablature.blogspot.com/
E|--------------------------------|--------------------------------|
B| 3-- 5-- 5-- 5------ 3------ 5--|------------ 5-- 3------ 5------|
G| 4-- 5-- 5-- 5------ 4------ 5--|-------- 5------ 4------ 3------|
D| 5-- 5-- 5-- 5------ 5------ 5--|-- 5------------ 5-- 5-- 5-- 5--|
A| 0-------------- 0--------------| 0-------------- 0------ 4------|
E|--------------------------------|--------------------------------|
http://classicalguitartablature.blogspot.com/
E|--------------------------------|--------------------------------|
B| 5-- 6-- 6-- 6------ 5------ 6--|------------ 6------------------|
G| 5-- 5-- 5-- 5------ 5------ 5--|------ 5---------------- 5------|
D| 5-- 7-- 7-- 7------ 5------ 7--|---- 7-------------- 7------ 7--|
A| 5-------------- 5--------------| 5------------ 5----------------|
E|--------------------------------|--------------------------------|
http://classicalguitartablature.blogspot.com/
E| 1-- 1-- 1-- 1------------------| 1-- 1-- 1-- 1------------------|
B| 1-- 1-- 1-- 1------------------| 1-- 1-- 1-- 1------------------|
G| 2-- 2-- 2-- 2---------- 2------| 2-- 2-- 2-- 2---------- 2------|
D|-------------------- 3------ 3--|-------------------- 3------ 3--|
A|--------------------------------|--------------------------------|
E| 3-------------- 3--------------| 3-------------- 3--------------|
http://classicalguitartablature.blogspot.com/
E|--------------------------------|---- 0-- 0-- 0------------------|
B| 3-- 5-- 5-- 5------------------| 3-- 3-- 3-- 3------------------|
G| 4-- 4-- 4-- 4---------- 4------| 1-- 1-- 1-- 1---------- 1------|
D| 5-- 5-- 5-- 5------ 5------ 5--| 0------------------ 0------ 0--|
A| 3-------------- 3--------------|--------------------------------|
E|--------------------------------| 0-------------- 0--------------|
http://classicalguitartablature.blogspot.com/
E| 8------ 7------ 8------ 7------| 8------ 7------ 8-- 7 5--------|
B|---- 5------ 5------ 5------ 5--| 5-- 5------ 5-------------- 8--|
G| 5------------------------------| 5------------------------------|
D|--------------------------------|--------------------------------|
A| 0------------------------------| 0------------------------------|
E|--------------------------------|--------------------------------|
http://classicalguitartablature.blogspot.com/
E| 5-------------- 5--------------| 5------------ 5----------------|
B|-------- 8-------------- 8------|-------- 8-------- 8-- 6---- 5--|
G|---- 5------ 5------ 5------ 5--|---- 5------ 5------------------|
D|--------------------------------|--------------------------------|
A| 8------------------------------| 8------------------------------|
E|--------------------------------|--------------------------------|
http://classicalguitartablature.blogspot.com/
E|--------------------------------|--------------------------------|
B| 6------ 5------ 6---- 5------ 6|------ 5-------- 6-- 5----------|
G| 5---------------------------- 5|------------------------ 7-- 5--|
D|---- 7------ 7---- 7-------- 7--|---- 7------ 7------------------|
A| 5------------------------------| 5------------------------------|
E|--------------------------------|--------------------------------|
http://classicalguitartablature.blogspot.com/
E|--------------------------------|--------------------------------|
B| 1---------- 1------------------| 0---------- 0------------------|
G|-------- 2-------------- 2------|-------- 0------------------ 0--|
D|---- 3-------------- 3----------|---- 0------------------ 0------|
A|--------------------------------|--------------------------------|
E| 1------------------------------| 3------------------------------|
http://classicalguitartablature.blogspot.com/
E|--------------------------------|--------------------------------|
B|-- 1----------------------------|--------------------------------|
G|-- 0----------------------------|--------------------------------|
D| 2------------------------------|--------------------------------|
A| 0------------------------------|--------------------------------|
E|--------------------------------|--------------------------------|
http://classicalguitartablature.blogspot.com/
0 com

A Song For You (BASIC)

The Carpenters' tune fingerstyle chord melody guitar BASIC arrangement played in the key of Dm.

A Song For You - The Carpenters - BASIC ARRANGEMENT played in the key of Dm.
http://classicalguitartablature.blogspot.com/
E|--------------------------------|--------------------------------|
B|---- 6-- 6 5 5------------------|------ 2------------------------|
G| 7------------ 7 7--------------|-- 2------ 2------------ 2------|
D| 7------------------ 7-- 5-- 3--| 5---------- 5---- 5-------- 5--|
A| 5------------ 5----------------| 4-------------- 4------------ 3|
E|--------------------------------|--------------------------------|
http://classicalguitartablature.blogspot.com/
E|---- 1 3-- 1--------------------|------------------------------ 1|
B|-------------- 3-- 1------------|-------- 0---------------- 0 3--|
G| 2-------------------- 2 0------| 2---- 0-- 0---------- 0--------|
D| 3-------------------------- 3--| 0 0---------- 0---- 0----------|
A|---------------- 3------------ 2|---------------- 2--------------|
E|--------------------------------|--------------------------------|
http://classicalguitartablature.blogspot.com/
http://classicalguitartablature.blogspot.com/
E|-- 1---- 1-------- 5------------|------------------ 5------------|
B| 3 3-- 3 3-- 3 8-- 8------------| 6 3 3-- 6 3 8-------------- 8--|
G| 2 2 2 2 2-------------- 5-- 7--| 3 3 3-- 3 3 5---------- 5------|
D|-- 3-- 3------ 5------ 5--------| 3 3 3-- 3 3 5------ 5----------|
A| 1------------------------------|--------------------------------|
E|---------------- 5--------------| 3-------------- 5--------------|
http://classicalguitartablature.blogspot.com/
E|-------------------- 1----------|--------------------------------|
B|---------------- 1--------------|--------------------------------|
G| 2---------- 2-- 2-------- 2 0--|-------------------- 2---- 0----|
D| 3-- 0-- 3---- 3-------- 3---- 3| 3 3------ 3-- 3---------- 2----|
A| 1------------ 3-------------- 3|-------- 3-------------------- 5|
E|--------------------------------|---------------- 1-------- 0----|
http://classicalguitartablature.blogspot.com/
E|--------------------------------|--------------------------------|
B|---- 6-- 6 5 5------------------|------ 2------------------------|
G| 7------------ 7 7--------------|-- 2------ 2------------ 2------|
D| 7------------------ 7-- 5-- 3--| 5---------- 5---- 5-------- 5--|
A|---------------- 5--------------| 4-------------- 4------------ 3|
E|--------------------------------|--------------------------------|
http://classicalguitartablature.blogspot.com/
E|---- 1 3-- 1--------------------|------------------------------ 1|
B|-------------- 3-- 1------------|-------- 0---------------- 0 3--|
G| 2-------------------- 2 0------| 2---- 0-- 0---------- 0--------|
D| 3-------------------------- 3--| 0 0---------- 0---- 0----------|
A|---------------- 3------------ 2|---------------- 2--------------|
E|--------------------------------|--------------------------------|
http://classicalguitartablature.blogspot.com/
E|-- 1---- 1-------- 5------------|------------------ 5------------|
B| 3 3-- 3 3-- 3 8-- 8------------| 6 3 3-- 6 3 8-------------- 8--|
G| 2 2 2 2 2-------------- 5-- 7--| 3 3 3-- 3 3 5---------- 5------|
D|-- 3-- 3------ 5------ 5--------| 3 3 3-- 3 3 5------ 5----------|
A| 1------------------------------|--------------------------------|
E|---------------- 5--------------| 3-------------- 5--------------|
http://classicalguitartablature.blogspot.com/
E|-------------------- 1----------|---------------------------- 1--|
B|---------------- 1--------------|------------------------ 1------|
G| 2---------- 2-- 2-------- 2 0--|-------------------- 2-- 0------|
D| 3-- 0-- 3---- 3-------- 3---- 3| 3 3------ 3---- 3------ 2------|
A| 1------------ 3-------------- 3|-------- 3----------------------|
E|--------------------------------|---------------- 1------ 0------|
http://classicalguitartablature.blogspot.com/
E|-------------------------- 3-- 5|--------------------------------|
B| 8 6---------- 3-- 6------ 6 6 6|-- 8------ 6---------------- 0--|
G| 5-- 5---- 7 5 3-- 3------ 3 3--| 7-------------- 0-------- 0----|
D| 7-------- 7 7-- 5-- 5------ 5--|-------------- 7-- 3-- 3-- 3----|
A| 5------ 5------ 4---- 4--------|---------------- 2------ 2------|
E|--------------------------------| 8------ 8----------------------|
http://classicalguitartablature.blogspot.com/
E|--------------------------------|---------------------------- 1--|
B|-------------- 1------ 1 3 1----|-- 1------------ 1------ 1------|
G| 2---------- 2------ 0 0 0 0-- 2|---------- 2---- 2 2---- 0------|
D|-- 3-- 0 3 3------ 3-- 3-- 3----|------ 3------ 3-- 3------ 2----|
A| 1------ 1------ 3------ 3------|-------------------- 3------ 3--|
E|--------------------------------| 1------ 1------ 1------ 0------|
http://classicalguitartablature.blogspot.com/
E|-------------------------- 3-- 5|--------------------------------|
B| 8 6---------- 3-- 6------ 6 6 6|-- 8------ 6---------------- 0--|
G| 5-- 5---- 7 5 3-- 3------ 3 3--| 7-------------- 0-------- 0----|
D| 7-------- 7 7-- 5-- 5------ 5--|-------------- 7-- 3-- 3-- 3----|
A| 5------ 5------ 4---- 4--------|---------------- 2------ 2------|
E|--------------------------------| 8------ 8----------------------|
http://classicalguitartablature.blogspot.com/
E|------------------------------ 5|-- 3-- 3------ 3------ 3--------|
B| 6 6-- 8---- 1-------- 1---- 3--| 3---- 3-- 6-- 3------ 3--------|
G| 7-- 7 7 7 7------ 2---- 2------| 5-- 5-- 4---- 3------------ 3--|
D| 8---- 8---------- 2-- 2 2 2----|-------- 3-------- 3------ 3----|
A|-------------- 0-------- 0------|-------------- 3-------------- 3|
E| 6---- 6------------------------| 3------ 3----------------------|
http://classicalguitartablature.blogspot.com/
E|---------------------- 0-- 1----| 3------------------------------|
B|-------------- 1---- 3----------| 3 6---- 5 3---- 5---------- 5--|
G|-- 0-- 2-- 3-- 0----------------| 3 3---- 3 3---- 3---- 3--------|
D|-- 3---------- 3----------------|-- 3---- 3-- 3-- 5-- 5----------|
A|-------------- 3-------------- 3|-------------- 4-------------- 5|
E|--------------------------------|--------------------------------|
http://classicalguitartablature.blogspot.com/
E|--------------------------------|--------------------------------|
B|---- 6-- 6 5 5------------------|------ 2------------------------|
G| 7------------ 7 7--------------|-- 2------ 2------------ 2------|
D| 7------------------ 7-- 5-- 3--| 5---------- 5---- 5-------- 5--|
A|---------------- 5--------------| 4-------------- 4------------ 3|
E|--------------------------------|--------------------------------|
http://classicalguitartablature.blogspot.com/
E|---- 1 3-- 1--------------------|------------------------------ 1|
B|-------------- 3-- 1------------|-------- 0---------------- 0 3--|
G| 2-------------------- 2 0------| 2---- 0-- 0---------- 0--------|
D| 3-------------------------- 3--| 0 0---------- 0---- 0----------|
A|---------------- 3------------ 2|---------------- 2--------------|
E|--------------------------------|--------------------------------|
http://classicalguitartablature.blogspot.com/
E|-- 1---- 1-------- 5------------|------------------ 5------------|
B| 3 3-- 3 3-- 3 8-- 8------------| 6 3 3-- 6 3 8-------------- 8--|
G| 2 2 2 2 2-------------- 5-- 7--| 3 3 3-- 3 3 5---------- 5------|
D|-- 3-- 3------ 5------ 5--------| 3 3 3-- 3 3 5------ 5----------|
A| 1------------------------------|--------------------------------|
E|---------------- 5--------------| 3-------------- 5--------------|
http://classicalguitartablature.blogspot.com/
E|-------------------- 1----------|--------------------------------|
B|---------------- 1--------------|------------------------ 1------|
G| 2---------- 2-- 2-------- 2 0--|------------------ 2-------- 2--|
D| 3-- 0-- 3---- 3-------- 3---- 3| 3 3------ 3---- 3--------------|
A| 1------------ 3-------------- 3|-------- 3----------------------|
E|--------------------------------|-------------- 1----------------|
http://classicalguitartablature.blogspot.com/
E|-------------------- 1----------|--------------------------------|
B|---------------- 1--------------|------------ 1------------------|
G| 2---------- 2-- 2-------- 2 0--|------ 2------ 2----------------|
D| 3-- 0-- 3---- 3-------- 3------| 3 3 3------------ 3---- 3------|
A| 1------------ 3----------------| 3-------------- 3--------------|
E|--------------------------------|------------------------------ 1|
http://classicalguitartablature.blogspot.com/
E|--------------------------------|--------------------------------|
B|-------- 1----------------------|--------------------------------|
G|---- 2--------------------------|--------------------------------|
D| 3------------------------------|--------------------------------|
A|--------------------------------|--------------------------------|
E|--------------------------------|--------------------------------|
http://classicalguitartablature.blogspot.com/