To celebrate the anniversary, I am giving you (finally...) : iPhone LickByNeck !!!!!!

Baby Elephant Walk (Intermediate)

Henry Mancini's tune fingerstyle chord melody guitar intermediate arrangement played in the key of F.

Baby Elephant Walk - Henry Mancini - Intermediate ARRANGEMENT played in the key of F.
http://classicalguitartablature.blogspot.com/
E|--------------------------------|--------------------------------|
B|--------------------------------|--------------------------------|
G|--------------------------------|--------------------------------|
D|--------------------------------|--------------------------------|
A|---------- 0---- 3-- 3------ 0--|------------ 0-- 3-- 3------ 0--|
E| 1-- 1-- 4-------------- 4------| 1-- 1-- 4-------------- 4------|
http://classicalguitartablature.blogspot.com/
E|--------------------------------|--------------------------------|
B|--------------------------------|--------------------------------|
G|-------- 2-------------- 0-- 0--|-------- 2-------------- 0-- 0--|
D|-------- 1-------------- 1-- 1--|-------- 1-------------- 1-- 1--|
A|------------ 0-- 3-- 3------ 0--|------------ 0-- 3-- 3------ 0--|
E| 1-- 1-- 4-------------- 4------| 1-- 1-- 4-------------- 4------|
http://classicalguitartablature.blogspot.com/
http://classicalguitartablature.blogspot.com/
E|--------------------------------|--------------------------------|
B|--------------------------------|--------------------------------|
G|-------- 2-------------- 0-- 0--|-------- 2-------------- 0-- 0--|
D|-------- 1-------------- 1-- 1--|-------- 1-------------- 1-- 1--|
A|------------ 0-- 3-- 3------ 0--|------------ 0-- 3-- 3------ 0--|
E| 1-- 1-- 4-------------- 4------| 1-- 1-- 4-------------- 4------|
http://classicalguitartablature.blogspot.com/
E|--------------------------------|--------------------------------|
B|-------- 3----------------------|-------- 3----------------------|
G|-------- 3-------------- 5-- 5--|-------- 3-------------- 5-- 5--|
D|-------- 3-------------- 6-- 6--|-------- 3-------------- 6-- 6--|
A| 1-- 1-- 4-- 5-- 8-- 8------ 5--| 1-- 1-- 4-- 5-- 8-- 8------ 5--|
E|------------------------ 9------|------------------------ 9------|
http://classicalguitartablature.blogspot.com/
E|--------------------------------|--------------------------------|
B|--------------------------------|--------------------------------|
G|-------- 2-------------- 0-- 0--|-------- 2-------------- 0-- 0--|
D|-------- 1-------------- 1-- 1--|-------- 1-------------- 1-- 1--|
A|------------ 0-- 3-- 3------ 0--|------------ 0-- 3-- 3------ 0--|
E| 1-- 1-- 4-------------- 4------| 1-- 1-- 4-------------- 4------|
http://classicalguitartablature.blogspot.com/
E|--------------------------------|--------------------------------|
B|-------- 5----------------------|-------- 3----------------------|
G|-------- 5----------------------|-------- 3-------------- 5-- 5--|
D|-------- 5----------------------|-------- 3-------------- 6-- 6--|
A| 3-- 3-- 6-- 7--10--10-- 6-- 7--| 1-- 1-- 4-- 5-- 8-- 8------ 5--|
E|--------------------------------|------------------------ 9------|
http://classicalguitartablature.blogspot.com/
E|--------------------------------|--------------------------------|
B|--------------------------------|--------------------------------|
G|-------- 2-------------- 0-- 0--|-------- 2-------------- 0-- 0--|
D|-------- 1-------------- 1-- 1--|-------- 1-------------- 1-- 1--|
A|------------ 0-- 3-- 3------ 0--|------------ 0-- 3-- 3------ 0--|
E| 1-- 1-- 4-------------- 4------| 1-- 1-- 4-------------- 4------|
http://classicalguitartablature.blogspot.com/
E|-------- 4-- 6-- 7 6---- 4------|--------------------------------|
B|---- 6---------------------- 6 4| 6------------------------------|
G|--------------------------------|-- 5---- 4-- 3-- 1--------------|
D|--------------------------------|-------------------- 3-- 1 1----|
A|--------------------------------|---------------------------- 3--|
E| 1------------------------------|--------------------------------|
http://classicalguitartablature.blogspot.com/
E|--------------------------------|---------------- 5-- 3----------|
B|--------------------------------|------------ 6---------- 6-- 3--|
G|--------------------------------|------ 2 5----------------------|
D|--------------------------------| 3------------------------------|
A| 2------------------------------|---------------- 3-- 3------ 0--|
E|---- 4-- 1----------------------| 1-- 1-- 4-- 5---------- 4------|
http://classicalguitartablature.blogspot.com/
E|--------------------------------|---------------- 5-- 3----------|
B| 0-- 1--------------------------|------------ 6---------- 6-- 3--|
G| 2-- 2--------------------------|------ 2 5----------------------|
D| 3-- 3--------------------------| 3------------------------------|
A|------------ 0-- 3-- 3----------|---------------- 3-- 3------ 0--|
E| 1-- 1-- 4-------------- 4-- 5--| 1-- 1-- 4-- 5---------- 4------|
http://classicalguitartablature.blogspot.com/
E|--------------------------------|--------------------------------|
B| 1---------------------- 3------|--------------------------------|
G| 2-------------------------- 1--|---------------------------- 7--|
D| 3-------------------------- 3--|---------------------------- 6--|
A|------------ 0-- 3-- 3------ 0--| 1-- 1-- 4-- 5-- 8-- 8-- 4-- 5--|
E| 1-- 1-- 4-------------- 4------|--------------------------------|
http://classicalguitartablature.blogspot.com/
E|--------------------------------|---------------- 5-- 3----------|
B|--------------------------------|------------ 6---------- 6-- 3--|
G| 1------------------------------|------ 2 5----------------------|
D|---- 3--------------------------| 3------------------------------|
A| 1-- 1-- 4-- 5-- 8-- 8-- 4-- 5--|---------------- 3-- 3------ 0--|
E|--------------------------------| 1-- 1-- 4-- 5---------- 4------|
http://classicalguitartablature.blogspot.com/
E|--------------------------------| 3------------------------------|
B| 0-- 1--------------------------| 5------ 8----------------------|
G| 2-- 2---------------------- 5--| 3------ 5------ 9--------------|
D| 3-- 3--------------------------|-------- 5----------10------10--|
A|------------ 0-- 3-- 3----------| 3-- 3-- 6-- 7--10--10----------|
E| 1-- 1-- 4-------------- 4-- 5--|------------------------11--12--|
http://classicalguitartablature.blogspot.com/
E| 1------------------------------|--------------------------------|
B| 3------ 6-------------------- 0|--------------------------------|
G| 1------ 3---- 8--10------------| 2------ 4------ 3 4 1----------|
D|-------- 3----------10 8---- 6--| 1------ 3-------------- 3---- 1|
A| 1-- 1-- 4-- 5-- 8-- 8-- 4-- 5--|---------- 0---- 3-- 3------ 3--|
E|--------------------------------| 1-- 1-- 4-------------- 4-- 5--|
http://classicalguitartablature.blogspot.com/
E|--------------------------------|--------------------------------|
B|--------------------------------|--------------------------------|
G|--------------------------------|-------- 1------ 3-- 1----------|
D|---- 3--------------------------| 3------ 3---- 3 3-- 3----------|
A|---------------- 3-- 3----------|--------------------------------|
E| 1-- 1-- 4-- 5---------- 4-- 5--| 1------------------------------|
http://classicalguitartablature.blogspot.com/
E|--------------------------------|--------------------------------|
B| 3------ 1------ 3-- 3-- 1------|--------------------------------|
G| 3------ 1 2---- 3-- 3-- 1 2----|-------- 1------ 3-- 3-- 1------|
D| 3------ 1------ 3-- 3-- 1------| 3------------ 3------------ 3--|
A|--------------------------------|--------------------------------|
E|--------------------------------| 1------------------------------|
http://classicalguitartablature.blogspot.com/
E|--------------------------------|--------------------------------|
B|------------------------ 3------|--------------------------------|
G| 1-------------------------- 1--|---------------------------- 7--|
D|---- 8---------------------- 3--|---------------------------- 6--|
A|---- 8-- 7-- 6-- 5-- 4-- 3-- 2--| 1-- 1-- 4-- 5-- 8-- 8-- 4-- 5--|
E|--------------------------------|--------------------------------|
http://classicalguitartablature.blogspot.com/
E|--------------------------------|---------------- 5-- 3----------|
B|--------------------------------|------------ 6---------- 6-- 3--|
G| 1------------------------------|------ 2 5----------------------|
D|---- 3--------------------------| 3------------------------------|
A| 1-- 1-- 4-- 5-- 8-- 8-- 4-- 5--|---------------- 3-- 3------ 0--|
E|--------------------------------| 1-- 1-- 4-- 5---------- 4------|
http://classicalguitartablature.blogspot.com/
E|--------------------------------| 3------------------------------|
B| 0-- 1--------------------------| 5------ 8----------------------|
G| 2-- 2---------------------- 5--| 3------ 5------ 9--------------|
D| 3-- 3--------------------------|-------- 5----------10------10--|
A|------------ 0-- 3-- 3----------| 3-- 3-- 6-- 7--10--10----------|
E| 1-- 1-- 4-------------- 4-- 5--|------------------------11--12--|
http://classicalguitartablature.blogspot.com/
E| 1------------------------------|--------------------------------|
B| 3------ 6-------------------- 0|--------------------------------|
G| 1------ 3---- 8--10------------| 2------ 4------ 3 4 1----------|
D|-------- 3----------10 8---- 6--| 1------ 3-------------- 3---- 1|
A| 1-- 1-- 4-- 5-- 8-- 8-- 4-- 5--|---------- 0---- 3-- 3------ 3--|
E|--------------------------------| 1-- 1-- 4-------------- 4-- 5--|
http://classicalguitartablature.blogspot.com/
E|--------------------------------|--------------------------------|
B|--------------------------------|--------------------------------|
G|--------------------------------|-------- 1------ 3-- 1----------|
D|---- 3--------------------------| 3------ 3---- 3 3-- 3----------|
A|---------------- 3-- 3----------|--------------------------------|
E| 1-- 1-- 4-- 5---------- 4-- 5--| 1------------------------------|
http://classicalguitartablature.blogspot.com/
E|--------------------------------|--------------------------------|
B| 3------ 1------ 3-- 3-- 1------|--------------------------------|
G| 3------ 1 2---- 3-- 3-- 1 2----|-------- 1------ 3-- 3-- 1------|
D| 3------ 1------ 3-- 3-- 1------| 3------------ 3------------ 3--|
A|--------------------------------|--------------------------------|
E|--------------------------------| 1------------------------------|
http://classicalguitartablature.blogspot.com/
E|--------------------------------|--------------------------------|
B|--------------------------------|------------------ 9------------|
G| 1------------------------------| 2---------------- 8------------|
D|---- 8--------------------------| 1-------------- 7--------------|
A|---- 8-- 7-- 6-- 5-- 4-- 5-- 6--|-------------- 8----------------|
E|--------------------------------| 1------------------------------|
http://classicalguitartablature.blogspot.com/
E|--------------------------------|--------------------------------|
B|--------------------------------|--------------------------------|
G|--------------------------------|--------------------------------|
D|--------------------------------|--------------------------------|
A|--------------------------------|--------------------------------|
E|--------------------------------|--------------------------------|
http://classicalguitartablature.blogspot.com/

0 ความคิดเห็น:

แสดงความคิดเห็น