To celebrate the anniversary, I am giving you (finally...) : iPhone LickByNeck !!!!!!

Can't Cry Hard Enough (BASIC)

The William Brothers' tune fingerstyle chord melody guitar BASIC arrangement played in the key of G.

Can't Cry Hard Enough-The William Brothers - BASIC ARRANGEMENT played in the key of G.
http://classicalguitartablature.blogspot.com/
E|-------- 3------------ 3--------|-------- 3----------------------|
B|-------- 3-------------- 3------|-------- 3------ 0-- 1-- 3-- 3--|
G|------------ 0-------------- 0--|---------- 0 0-- 0---------- 0--|
D|---- 0-------------- 0----------|---- 0---------- 0---------- 0--|
A|--------------------------------|--------------------------------|
E| 3-------------- 3--------------| 3-------------- 3--------------|
http://classicalguitartablature.blogspot.com/
E|--------------------------------|-------------- 0----------------|
B|--------------------------------|------ 3------ 3------ 3-- 3----|
G|-------- 0---- 0-------- 0------|------ 2---- 0-- 0--------------|
D|---- 0------ 0------ 0----------|---- 0--------------------------|
A|--------------------------------|--------------------------------|
E| 3-------------- 3---------- 3--| 2-------------- 2------------ 0|
http://classicalguitartablature.blogspot.com/
http://classicalguitartablature.blogspot.com/
E|--------------------------------|---------------- 0--------------|
B|--------------------------------|-------- 3------ 3---- 3---- 3--|
G|-- 0 0------ 0---------- 0------|-------- 0-- 0-- 0--------------|
D|-------- 0---------- 0----------|---- 4--------------------------|
A|--------------------------------| 5-------------- 5--------------|
E|---------------- 0---------- 0--|--------------------------------|
http://classicalguitartablature.blogspot.com/
E|--------------------------------|--------------------------------|
B|--------------------------------|---------------- 0---------- 0--|
G|-- 0 0------ 0-------- 0--------|-------- 0-- 0-- 2-- 2----------|
D|-------- 2---------- 2----------|---- 0---------- 4------ 4------|
A| 3-------------- 3---------- 3--| 2-------------- 5--------------|
E|--------------------------------|--------------------------------|
http://classicalguitartablature.blogspot.com/
E|--------------------------------|--------------------------------|
B| 0------ 0------ 1---- 1------ 0|---------------- 0 1---- 3-- 3--|
G| 0------ 0------ 0---- 0------ 0|---------- 0 0-------------- 0--|
D|---- 0------ 0 2-- 2-------- 2 0|---------------------------- 0--|
A|--------------------------------|--------------------------------|
E| 3-------------- 3--------------| 3------------------------------|
http://classicalguitartablature.blogspot.com/
E|--------------------------------|-------------- 0----------------|
B|--------------------------------|------ 3------ 3------ 3-- 3----|
G|-------- 0---- 0-------- 0------|------ 2---- 0-- 0--------------|
D|---- 0------ 0------ 0----------|---- 0--------------------------|
A|--------------------------------|--------------------------------|
E| 3-------------- 3---------- 3--| 2-------------- 2------------ 0|
http://classicalguitartablature.blogspot.com/
E|--------------------------------|---------------- 0--------------|
B|--------------------------------|-------- 3------ 3---- 3---- 3--|
G|-- 0 0------ 0---------- 0------|-------- 0-- 0-- 0--------------|
D|-------- 0---------- 0----------|---- 4--------------------------|
A|--------------------------------| 5-------------- 5--------------|
E|---------------- 0---------- 0--|--------------------------------|
http://classicalguitartablature.blogspot.com/
E|--------------------------------|--------------------------------|
B|--------------------------------|---------------- 0--------------|
G|-- 0 0------ 0-------- 0--------|-------- 0-- 0-- 2-- 2------ 0--|
D|-------- 2---------- 2----------|---- 0---------- 4------ 4------|
A| 3-------------- 3---------- 3--| 2------------ 5----------------|
E|--------------------------------|--------------------------------|
http://classicalguitartablature.blogspot.com/
E|--------------------------------|---------------- 3-- 3-- 2-- 3--|
B|-------- 0------ 1------ 1---- 0|---------------- 3-- 3-- 3-- 0--|
G| 0------ 0------ 0------ 0------| 0------ 0------ 2-- 2-- 2-- 0--|
D|---- 0------ 0 2---- 2------ 2--|---- 0------ 0------------------|
A|--------------------------------|--------------------------------|
E| 3-------------- 3--------------| 3-------------- 2--------------|
http://classicalguitartablature.blogspot.com/
E|---------------- 3 3-- 2---- 3--|---- 2-------- 3------ 2---- 3--|
B|-------- 0---- 0-- 0-- 0---- 3--|---- 3------ 3 3------ 3---- 3--|
G|-------- 0---- 0-- 0-- 0---- 2--|---- 2-- 2---- 2-- 2-------- 4--|
D|---- 0------ 0------------------|--------------------------------|
A|--------------------------------|--------------------------------|
E| 0-------------- 0--------------| 2-------------- 2--------------|
http://classicalguitartablature.blogspot.com/
E|-------------- 3---- 7---- 3----| 5------------ 5---- 7--------10|
B|------------ 3 3----------------|---------- 6-- 6---------- 8-- 8|
G|------ 4------ 4-------------- 5|-------- 5---- 5----------------|
D|---- 5--------------------------|---- 7--------------------------|
A|------------------------------ 8|-------------- 8--------------10|
E| 3-------------- 3--------------|--------------------------------|
http://classicalguitartablature.blogspot.com/
E|--------------------------------|----------------12----10----10--|
B|-------- 8------------ 8--------|----------------10----10---- 8--|
G|-- 7------ 7------ 7------ 7----|--------11--12--11----11---- 7--|
D|--------------------------------|----12--------------------------|
A|--------------10----------------| 9-------------- 9--------------|
E|--------------------------------|--------------------------------|
http://classicalguitartablature.blogspot.com/
E|--------------------------------|--------------12----10------10--|
B|-- 8 8------------------ 8------|--------12------------------ 8--|
G|-- 7 7------ 7---------- 7------|------------12-------------- 9--|
D|-- 9 9-- 9---------- 9------ 9--|----12--------------------------|
A| 7-------------- 7--------------|--------------------------------|
E|--------------------------------|10--------------10--------------|
http://classicalguitartablature.blogspot.com/
E|--------------------------------|---------------- 7-- 5----------|
B|-- 8 8--------------------------|---------- 8 8-- 5-- 5------ 8--|
G|-- 9 9---- 9------------ 9------|------ 7-- 7 7-- 5---------- 5--|
D|--101010------------10----------|---- 9------ 9---------- 5-- 5--|
A|--------------------------------|---------------- 5--------------|
E| 8------------ 8------------ 8--| 7------------------------------|
http://classicalguitartablature.blogspot.com/
E| 3------------------------------|--------------------------------|
B| 0---------- 0-- 1-------- 1----| 0-------------- 0-- 1-- 3-- 3--|
G| 0------ 0------ 0------ 0------| 0---------- 0-------------- 0--|
D|---- 0---------- 2 2------------| 0-------------------------- 0--|
A|--------------------------------|--------------------------------|
E| 3-------------- 3--------------| 3------------------------------|
http://classicalguitartablature.blogspot.com/
E|--------------------------------|-------------- 0----------------|
B|--------------------------------|------ 3------ 3------ 3-- 3----|
G|-------- 0---- 0-------- 0------|------ 2---- 0-- 0--------------|
D|---- 0------ 0------ 0----------|---- 0--------------------------|
A|--------------------------------|--------------------------------|
E| 3-------------- 3---------- 3--| 2-------------- 2------------ 0|
http://classicalguitartablature.blogspot.com/
E|--------------------------------|---------------- 0--------------|
B|--------------------------------|-------- 3------ 3---- 3---- 3--|
G|-- 0 0------ 0---------- 0------|-------- 0-- 0-- 0--------------|
D|-------- 0---------- 0----------|---- 4--------------------------|
A|--------------------------------| 5-------------- 5--------------|
E|---------------- 0---------- 0--|--------------------------------|
http://classicalguitartablature.blogspot.com/
E|--------------------------------|--------------------------------|
B|--------------------------------|---------------- 0--------------|
G|-- 0 0------ 0-------- 0--------|-------- 0-- 0-- 2-- 2------ 0--|
D|-------- 2---------- 2----------|---- 0---------- 4------ 4------|
A| 3-------------- 3---------- 3--| 2------------ 5----------------|
E|--------------------------------|--------------------------------|
http://classicalguitartablature.blogspot.com/
E|--------------------------------|--------------------------------|
B|------------ 0-- 1------------ 1|-------- 0----------------------|
G| 0------ 0------ 0------ 0------|------ 0------------------------|
D|---- 0---------- 2-- 2----------|------ 0------------------------|
A|--------------------------------|--------------------------------|
E| 3-------------- 3--------------|------ 3------------------------|
http://classicalguitartablature.blogspot.com/

0 ความคิดเห็น:

แสดงความคิดเห็น