To celebrate the anniversary, I am giving you (finally...) : iPhone LickByNeck !!!!!!

Gone Too Soon (BASIC)

Michael Jackson's tune fingerstyle chord melody guitar BASIC arrangement played in the key of A.

Gone Too Soon - Michael Jackson - BASIC ARRANGEMENT played in the key of A.
http://classicalguitartablature.blogspot.com/
E|------------------------------ 7|---------------- 9--------------|
B|---------------------- 2--------|--------------------------------|
G|-------------- 4----------------|--------------------------------|
D|------ 2------------------------|--------------------------------|
A| 0------------------------------|--------------------------------|
E|--------------------------------|--------------------------------|
http://classicalguitartablature.blogspot.com/
E|--------------------------------|12--------------10--------------|
B|--------------------------------|--------------------------------|
G|------------------------11------|--------------------------------|
D|----------------14--------------|--------------------------------|
A|--------12----------------------|--------------------------------|
E|10------------------------------|--------------------------------|
http://classicalguitartablature.blogspot.com/
http://classicalguitartablature.blogspot.com/
E|------------------------------ 7|---------------- 9--------------|
B|---------------------- 2--------|--------------------------------|
G|-------------- 4----------------|--------------------------------|
D|------ 2------------------------|--------------------------------|
A| 0------------------------------|--------------------------------|
E|--------------------------------|--------------------------------|
http://classicalguitartablature.blogspot.com/
E|--------------------------------|12--------------10--------------|
B|--------------------------------|--------------------------------|
G|------------------------11------|--------------------------------|
D|--------------14----------------|----------------------11--12----|
A|--------12----------------------|--------------------------------|
E|10------------------------------|--------------------------------|
http://classicalguitartablature.blogspot.com/
E|--------------------------------|--------------------------------|
B| 5-- 5---------------- 5--------|------ 5-- 5---------------- 3--|
G| 6-------------- 6--------------|------ 6-- 6-- 7-- 6-------- 2--|
D| 7-------- 7--------------------|-------- 6------------------ 5--|
A| 0---------------------------- 0|--------------------------------|
E|--------------------------------|--------------------------------|
http://classicalguitartablature.blogspot.com/
E|--------------------------------|--------------------------------|
B|---- 2--------------------------|-------- 2----------------------|
G|-------- 2-------------- 2------| 2-------------- 2--------------|
D|-------------- 5-------------- 4|------------------------ 4------|
A| 0---------------------------- 0|--------------------------------|
E|--------------------------------|--------------------------------|
http://classicalguitartablature.blogspot.com/
E|--------------------------------|--------------------------------|
B|-------- 2----------------------| 3---------------------- 3------|
G| 2---------------------- 2------| 2-------------- 2--------------|
D|--------------------------------| 4---- 4---------------------- 4|
A|--------------------------------|--------------------------------|
E|------------------------------ 0|--------------------------------|
http://classicalguitartablature.blogspot.com/
E|--------------------------------|--------------------------------|
B|---------------------------- 2--|---------------------- 2--------|
G|------------------------ 2------|---------------- 4--------------|
D|---------------- 2 4-- 2--------|-------- 2----------------------|
A|--------------------------------| 0------------------------------|
E|--------------------------------|--------------------------------|
http://classicalguitartablature.blogspot.com/
E| 7-------------- 9--------------|--------------------------------|
B|--------------------------------|--------------------------------|
G|--------------------------------|------------------------11------|
D|--------------------------------|--------------14----------------|
A|--------------------------------|--------12----------------------|
E|--------------------------------|10------------------------------|
http://classicalguitartablature.blogspot.com/
E|12--------------10--------------|--------------------------------|
B|--------------------------------| 5-- 5---------------- 5--------|
G|--------------------------------| 6-------------- 6--------------|
D|----------------------11--12----| 7-------- 7--------------------|
A|--------------------------------| 0---------------------------- 0|
E|--------------------------------|--------------------------------|
http://classicalguitartablature.blogspot.com/
E|--------------------------------|-------------------- 0----------|
B|------ 5-- 5-------------- 3----|-------- 2------ 3--------------|
G|------ 6-- 6-- 7-- 6------ 2----|-------- 2-------------- 2------|
D|-------- 6---------------- 5----|-------- 5-------------- 4------|
A|--------------------------------| 0------------------------------|
E|--------------------------------|--------------------------------|
http://classicalguitartablature.blogspot.com/
E|--------------------------------|--------------------------------|
B|---------------------- 2--------|-------------- 2----------------|
G|-------------- 2-------------- 2|---------------------- 2--------|
D|------ 4------------------------|-------- 4----------------------|
A| 0------------------------------|--------------------------------|
E|--------------------------------|------------------------------ 0|
http://classicalguitartablature.blogspot.com/
E|--------------------------------|--------------------------------|
B| 3-------------------- 3--------|------------------------ 5-- 2--|
G| 2-------------- 2--------------| 2------------------------------|
D| 4---- 4------------------------|---------------- 2 4------------|
A|--------------------------------|--------------------------------|
E|--------------------------------|--------------------------------|
http://classicalguitartablature.blogspot.com/
E|--------------------------------| 7-------------- 9--------------|
B|---------------------- 2--------|--------------------------------|
G|---------------- 4--------------|--------------------------------|
D|-------- 2----------------------|--------------------------------|
A| 0------------------------------|--------------------------------|
E|--------------------------------|--------------------------------|
http://classicalguitartablature.blogspot.com/
E|--------------------------------|--------------------------------|
B|------------------------ 2------| 0-------------- 2--------------|
G|-------------- 4----------------| 0-------------- 0--------------|
D|-------- 2-------------------- 0|------ 0------ 2-------- 2------|
A| 0------------------------------|-------------- 0----------------|
E|------------------------------ 0|--------------------------------|
http://classicalguitartablature.blogspot.com/
E|---------------- 2---- 2------ 2|------ 2------------------------|
B|-------------- 2------ 2------ 2|------ 2------------------ 2----|
G|-------------- 2------ 2------ 2|------ 2-------------- 2--------|
D|-------- 4----------------------|---------------- 4--------------|
A| 5------------------------------|------------------------------ 6|
E|--------------------------------|--------------------------------|
http://classicalguitartablature.blogspot.com/
E|-------------------------- 4----|--------------------------------|
B|------ 6------ 7-- 6-- 7-- 7----|--------------------------------|
G|------ 6------ 6-- 6-- 6-- 6----|------ 6------ 5----------------|
D|------ 4------ 4-- 4-- 4--------|------------------------ 4------|
A|--------------------------------|--------------------------------|
E|--------------------------------| 4------------------------------|
http://classicalguitartablature.blogspot.com/
E|---------------- 4--------------|--------------------------------|
B|-------- 5------ 5---- 5--------|-------- 5-------------------- 2|
G|-------- 6------ 5---- 5--------| 4------------------ 4----------|
D|-------- 6----------------------|-------------- 6---------- 6----|
A| 4------------------------------|--------------------------------|
E|--------------------------------|--------------------------------|
http://classicalguitartablature.blogspot.com/
E|--------------------------------|-------------------------- 0----|
B|---------------- 0--------------|-------- 0------------ 0--------|
G| 2---- 2------------------------| 2------------------ 2----------|
D| 2------ 2-------------- 2------|---------------- 2--------------|
A|--------------------------------|--------------------------------|
E| 0------------------------------|--------------------------------|
http://classicalguitartablature.blogspot.com/
E|--------------------------------|--------------------------------|
B| 2------------ 0----------------|-------- 0------------ 2-- 3----|
G| 2---- 2---------------------- 2|---------------- 2--------------|
D| 2---- 2---------------- 2------|--------------------------------|
A|--------------------------------|--------------------------------|
E|--------------------------------|--------------------------------|
http://classicalguitartablature.blogspot.com/
E|--------------------------------|--------------------------------|
B| 5-- 5---------------- 5--------|------ 5-- 5--------------------|
G| 6-------------- 6--------------|------ 6-- 6-- 7-- 6------------|
D| 7-------- 7--------------------|-------- 6----------------------|
A| 0---------------------------- 0|------------------------------ 0|
E|--------------------------------|--------------------------------|
http://classicalguitartablature.blogspot.com/
E|------------------------ 0------| 5------------------------------|
B| 3------ 2------ 3--------------| 2-------------------- 2--------|
G| 2------ 2------ 2--------------| 2-------------- 2--------------|
D| 5------ 5------ 5--------------|-------- 4-------------------- 3|
A|--------------------------------| 5------------------------------|
E|--------------------------------|--------------------------------|
http://classicalguitartablature.blogspot.com/
E|--------------------------------|--------------------------------|
B|---------------- 3--------------|-- 3-------------------- 3------|
G|-------- 4-------------- 4------| 2-------------- 2--------------|
D|--------------------------------| 4------ 4----------------------|
A|--------------------------------|--------------------------------|
E|--------------------------------| 0------------------------------|
http://classicalguitartablature.blogspot.com/
E|--------------------------------|--------------------------------|
B|------------------------ 5-- 2--|---------------------- 2--------|
G| 2------------------------------|---------------- 4--------------|
D|---------------- 2 4------------|-------- 2----------------------|
A|--------------------------------| 0------------------------------|
E|--------------------------------|--------------------------------|
http://classicalguitartablature.blogspot.com/
E| 7-------------- 9--------------|--------------------------------|
B|--------------------------------|--------------------------------|
G|--------------------------------|------------------------11------|
D|--------------------------------|----------------14--------------|
A|--------------------------------|--------12----------------------|
E|--------------------------------|10------------------------------|
http://classicalguitartablature.blogspot.com/
E|12--------------10--------------|------------------------------ 7|
B|--------------------------------|---------------------- 2--------|
G|--------------------------------|-------------- 4----------------|
D|--------------------------------|------ 2------------------------|
A|--------------------------------| 0------------------------------|
E|--------------------------------|--------------------------------|
http://classicalguitartablature.blogspot.com/
E|---------------- 9--------------|--------------------------------|
B|--------------------------------|--------------------------------|
G|--------------------------------|------------------------11------|
D|--------------------------------|--------------14----------------|
A|--------------------------------|--------12----------------------|
E|--------------------------------|10------------------------------|
http://classicalguitartablature.blogspot.com/
E|12--------------10--------------| 0------------------------------|
B|--------------------------------| 2---------------------- 2------|
G|--------------------------------| 4-------------- 4--------------|
D|----------------------11--12----|-------- 2----------------------|
A|------------------------------ 0|--------------------------------|
E|--------------------------------|--------------------------------|
http://classicalguitartablature.blogspot.com/

0 ความคิดเห็น:

แสดงความคิดเห็น