To celebrate the anniversary, I am giving you (finally...) : iPhone LickByNeck !!!!!!

Home (BASIC)

Michael Buble's tune fingerstyle chord melody guitar BASIC arrangement played in the key of D.

Home - Michael Buble - BASIC ARRANGEMENT played in the key of D.
http://classicalguitartablature.blogspot.com/
E|--------------------------------|--------------------------------|
B|---- 0--1210 8-- 7-- 5-- 3-- 2--| 0---------- 0-- 2---------- 2--|
G|---- 0-- 0 0 0------ 0-- 0------| 0------ 0------ 4------ 4------|
D|-- 0--12--11 9-- 7-- 5-- 4-- 2--| 0-- 0---------- 5-- 5----------|
A| 0------------------------------|--------------------------------|
E|--------------------------------|--------------------------------|
http://classicalguitartablature.blogspot.com/
E|------------ 2------------ 2----|--------------------------------|
B|-- 0 3 0 3 3-------- 3 3 3------|---- 0 0-- 3 3 3------ 0-- 3 3--|
G|-- 2 2 2 2 2------ 4-- 4--------|---- 2-------- 2---- 2----------|
D|-- 4 4 4------ 4------------ 2--|-- 0-------------- 0------------|
A| 5-------------- 4--------------| 2------------ 0----------------|
E|--------------------------------|--------------------------------|
http://classicalguitartablature.blogspot.com/
http://classicalguitartablature.blogspot.com/
E|--------------------------------|--------------------------------|
B| 3------ 3---------- 0 0-- 3 3--| 3------ 3-------------- 0------|
G|------ 0-- 0 0---- 0------------| 2---- 2-------------- 0-- 0-- 0|
D|---- 0------ 0-- 0--------------| 4-- 4---- 4-------- 0------ 0--|
A|-------------- 0----------------| 5-------------- 0--------------|
E| 3------------------------------|------------ 2 3----------------|
http://classicalguitartablature.blogspot.com/
E|------------ 2------------ 2----|--------------------------------|
B|-- 0 3 0 3 3-------- 3 3 3------|---- 0 0-- 3 3 3------ 0-- 3 3--|
G|-- 2 2 2 2 2------ 4-- 4--------|---- 2-------- 2---- 2----------|
D|-- 4 4 4------ 4------------ 2--|-- 0-------------- 0------------|
A| 5-------------- 4--------------| 2------------ 0----------------|
E|--------------------------------|--------------------------------|
http://classicalguitartablature.blogspot.com/
E|--------------------------------|---------------------------- 5--|
B| 3------ 3---------- 0 0-- 3 3--| 3------ 3-------------- 5 7----|
G|------ 0-- 0 0---- 0------------| 2---- 2-- 2-- 2---- 5----------|
D|---- 0------ 0-- 0--------------|---- 4------ 4---- 5------------|
A|-------------- 0----------------| 5-------------- 0--------------|
E| 3------------------------------|--------------------------------|
http://classicalguitartablature.blogspot.com/
E| 7------------ 3-- 2-- 0--------|-- 5 2---------------------- 2 0|
B| 7--1010-- 8------ 3------ 3-- 5|------------ 5------ 5 3-- 5-- 0|
G| 7-- 7 7-- 7---------------- 0 2|---------- 2------ 2-- 2------ 1|
D|---- 7 7-- 7------------------ 0|-------- 4------ 4--------------|
A|10------10----------------------| 2---- 2------ 2------ 2--------|
E|---------------- 3------ 3------|--------------------------------|
http://classicalguitartablature.blogspot.com/
E|---- 0-------------------- 0 2--| 0---- 0--------------------10 9|
B|-- 3---------------- 3 3--------|---- 3-------- 0---- 0----------|
G|-------------------- 4 4--------| 0---------- 0---- 0------11-- 9|
D|-------- 0------ 4---- 4--------|-- 0------ 0---- 0------ 0------|
A|--------------------------------|-------------- 0------ 0--------|
E| 0------ 0 2 3 4-------- 4------| 3------ 3----------------------|
http://classicalguitartablature.blogspot.com/
E| 7------------ 3-- 2-- 0--------|-- 5 2---------------------- 2 0|
B| 7--1010-- 8------ 3------ 3-- 5|------------ 5------ 5 3-- 5-- 3|
G| 7-- 7 7-- 7---------------- 0 2|---------- 2------ 2-- 2--------|
D|---- 7 7-- 7------------------ 0|-------- 4------ 4--------------|
A|10------10----------------------| 2---- 2------ 2------ 2--------|
E|---------------- 3------ 3------|--------------------------------|
http://classicalguitartablature.blogspot.com/
E|------ 0------------------ 0 2--| 0-------------- 0--------------|
B|---- 3-------- 3------ 3 3------| 3---------- 3---------- 0------|
G| 0---------- 0------ 0-- 0------| 0---- 0-- 0---------- 0-- 0----|
D|---------- 2------ 0---- 0------|---- 2-- 2---------- 0------ 0--|
A| 3------ 3------ 2------ 2------| 1-------------- 0--------------|
E|--------------------------------|--------------------------------|
http://classicalguitartablature.blogspot.com/
E|--------------------------------|-- 5-------------- 5 2----------|
B|-------- 0------------ 3------ 5|-- 7 7 5 5-------- 2 2 5 5 3 3--|
G|---- 0---- 0-------- 0------ 2--|-- 6 6---- 7 7---- 2-- 2 2---- 2|
D|-- 0-------- 0---- 0------ 2----|---- 7-------- 7-------- 2------|
A| 0-------------- 2------ 4------| 5-------------- 4--------------|
E|--------------------------------|--------------------------------|
http://classicalguitartablature.blogspot.com/
E|-------- 7------ 5--------------|--------------------------------|
B|-- 710----1010-- 3-------- 3 3--| 3------ 3---------------- 3 3--|
G|-- 7------------ 2-- 2-- 4------|------ 0-- 0-- 0---- 0 4--------|
D|-- 7---------------- 4----------|---- 0------ 0---- 0------------|
A|---------------- 0--------------|---------------- 0--------------|
E| 7------------------------------| 3------------------------------|
http://classicalguitartablature.blogspot.com/
E|--------------------------------|-- 5-------------- 5 2----------|
B| 3------ 3-------------- 0------|-- 7 7 5 5-------- 2 2 5 5 3 3--|
G| 2---- 2-------------- 0-- 0-- 0|-- 6 6---- 7 7---- 2-- 2 2---- 2|
D|---- 4---- 4-------- 0------ 0--|---- 7-------- 7-------- 2------|
A| 5-------------- 0--------------| 5-------------- 4--------------|
E|------------ 2 3----------------|--------------------------------|
http://classicalguitartablature.blogspot.com/
E|-------- 7---- 7----------------|--------------------------------|
B|-- 710----1010 7----------------| 3------ 3---------------- 3 3 3|
G|-- 7---------- 7---- 7---- 7 7--|------ 0-- 0-- 0---- 0 4------ 2|
D|-- 7-------------- 7---- 9------|---- 0------ 0---- 0------------|
A|---------------- 0--------------|---------------- 0------------ 5|
E| 7------------------------------| 3------------------------------|
http://classicalguitartablature.blogspot.com/
E|---------------------- 2-- 5 5 7|--------------------------------|
B|------ 3----------------------10|--10--------10------ 8-- 7---- 3|
G|---- 2-------------- 0-------- 7|---- 7---- 7------ 9-------- 9 2|
D|---- 4---- 4-------- 0----------|------ 7---------- 7------------|
A|---------------- 0--------------|------------------------------ 2|
E|------------ 2 3--------------10|---------------- 9--------------|
http://classicalguitartablature.blogspot.com/
E|------------------------ 5 2----|-------- 5 2 0---------- 5 2 0--|
B|-------- 3------------ 3---- 5--| 3---- 3-------- 3---- 3--------|
G|------ 2-- 2-------- 2----------| 0-- 0---------- 0-- 0----------|
D|-- 4---------- 4-- 4------------|-- 0-------------- 0------------|
A|---------------- 0--------------|---------------- 0--------------|
E|--------------------------------| 3------------------------------|
http://classicalguitartablature.blogspot.com/
E|---------------------- 2-- 5 5 7|----------10 9-------------- 7--|
B| 3---- 3------------ 0-------- 7|--10--10--------10--------------|
G| 2---- 2 2-------- 0------------|---- 7---------- 9---- 9--------|
D|---- 4---------- 0--------------|-- 7-------------- 7---- 7------|
A| 5------------ 0----------------|--------------------------------|
E|---------- 2-- 3--------------10|---------------- 9--------------|
http://classicalguitartablature.blogspot.com/
E| 2---------------------------- 5|-- 2------------------ 5-- 2-- 0|
B| 3-------- 3--------------------|------ 5---- 3------ 3----------|
G| 2------ 2---------- 2----------|------------ 0---- 0------------|
D|---- 4-------------- 2----------|------------ 0-- 0--------------|
A| 2------------------------------|--------------------------------|
E|-------------- 0 1-- 2----------|------------ 3------------------|
http://classicalguitartablature.blogspot.com/
E|--------------------------------|--------------------------------|
B|-- 3------ 3------ 3---- 3------|---------------------- 3--------|
G|-------- 0---- 4----------------|---------------------- 0--------|
D|-- 0 0--------------------------|-------------------- 4----------|
A| 0------------------------------|-------------------- 5----------|
E|--------------------------------|--------------------------------|
http://classicalguitartablature.blogspot.com/
E|--------------------------------|--------------------------------|
B|--------------------------------|--------------------------------|
G|--------------------------------|--------------------------------|
D|--------------------------------|--------------------------------|
A|--------------------------------|--------------------------------|
E|--------------------------------|--------------------------------|
http://classicalguitartablature.blogspot.com/

0 ความคิดเห็น:

แสดงความคิดเห็น