To celebrate the anniversary, I am giving you (finally...) : iPhone LickByNeck !!!!!!

Loss Of Love - Theme From Sunflower (BASIC)

Henry Mancini's tune fingerstyle chord melody guitar BASIC arrangement played in the key of Em.

Loss Of Love-Theme from Sunflower - Henry Mancini - BASIC ARRANGEMENT played in the key of Em.
http://classicalguitartablature.blogspot.com/
E|--------------------------------|--------------------------------|
B|--------------------------------|--------------------------------|
G|-------- 0------ 2------ 0------|-------- 0------ 2------ 0------|
D|--------------------------------|--------------------------------|
A|---- 2------ 2------ 2------ 2--|---- 2------ 2------ 2------ 2--|
E| 0------------------------------| 0------------------------------|
http://classicalguitartablature.blogspot.com/
E|--------------------------------|------------------------ 3------|
B|--------------------------------|---------------- 5--------------|
G|-------- 0------ 2------ 0------|------ 3---- 4------------------|
D|--------------------------------|--------------------------------|
A|---- 2------ 2------ 2---- 2----|-- 2----------------------------|
E| 0------------------------------| 0------------------------------|
http://classicalguitartablature.blogspot.com/
http://classicalguitartablature.blogspot.com/
E| 7---------- 8-- 5--------------|----------------10-- 8-- 7------|
B| 5-------------- 5--------------|------10----12-- 8----------10--|
G| 5------ 5------ 5--------------|---- 9-------- 8----------------|
D|---- 5-------------- 5---- 5----|----10-------- 7----------------|
A| 0------------------------------| 9------------------------------|
E|------------------------ 3------|-------------- 7----------------|
http://classicalguitartablature.blogspot.com/
E| 7------------------------------|-------- 0-- 2 5-- 3-- 2-- 0-- 3|
B|---------- 0---------------- 0--|---- 0------------------------ 3|
G|-------- 0-------------- 0------|---- 0--------------------------|
D|---- 0-------------- 0----------|-- 2----------------------------|
A|-------------- 5----------------| 4-------------- 4--------------|
E| 0------------------------------|--------------------------------|
http://classicalguitartablature.blogspot.com/
E|---------- 5-- 2-------------- 2|---------- 3---------- 8--------|
B|-------------- 3---------- 5----| 1------------10------ 8--------|
G| 3---- 3------ 3-------- 3------|------ 2------ 8------ 8------ 0|
D|-- 2-------------- 2------------|-- 2-------------- 7------ 8----|
A|--------------------------------|---------------------- 8--------|
E| 2------------ 2-------------- 2|-------------- 7-------------- 0|
http://classicalguitartablature.blogspot.com/
E| 7------------------------------|------------------------ 3------|
B| 8------ 8------10------ 8------| 0-------------- 5--------------|
G|--------------------------------| 0------ 3-- 4------------------|
D|---- 9------ 9------ 9------ 9 0|--------------------------------|
A|--------------------------------|--------------------------------|
E|------------------------------ 0|--------------------------------|
http://classicalguitartablature.blogspot.com/
E| 7---------- 8-- 5--------------|----------------10-- 8-- 7------|
B| 5-------------- 5--------------|------10----12-- 8----------10--|
G| 5------ 5------ 5--------------|---- 9-------- 8----------------|
D|---- 5-------------- 5---- 5----|----10-------- 7----------------|
A| 0------------------------------| 9------------------------------|
E|------------------------ 3------|-------------- 7----------------|
http://classicalguitartablature.blogspot.com/
E| 7------------------------------|-------- 0-- 2 5-- 3-- 2-- 0-- 3|
B|---------- 0---------------- 0--|---- 0------------------------ 3|
G|-------- 0-------------- 0------|---- 0--------------------------|
D|---- 0-------------- 0----------|-- 2----------------------------|
A|-------------- 5----------------| 4-------------- 4--------------|
E| 0------------------------------|--------------------------------|
http://classicalguitartablature.blogspot.com/
E|---------- 5-- 2-------------- 2|---------- 5---- 3---- 2--------|
B|-------------- 3---------- 5-- 1|---------- 3---- 1------ 1------|
G| 3---- 3------ 3-------- 3---- 2|------ 2---- 3-- 2--------------|
D|-- 2-------------- 2------------|---- 2-------------- 1------ 1--|
A|--------------------------------|------------ 3-- 2--------------|
E| 2------------ 2----------------| 2------------------------------|
http://classicalguitartablature.blogspot.com/
E| 0------------------------------|--------------------------------|
B| 2---------- 2------------------| 0---------- 1------------ 0----|
G| 0------ 0----------------------| 0------ 0------ 2---- 2--------|
D|---- 2-------------- 2------ 2--|---- 2-------------- 2----------|
A|------------------------ 2------| 3-------------- 3--------------|
E| 0------------ 3----------------|--------------------------------|
http://classicalguitartablature.blogspot.com/
E|--------------------------------|--------------------------------|
B| 1-------- 3-- 0------ 1------ 3|---------------------------- 2--|
G| 2---- 2------ 2------ 2------ 2|-------- 2-------------- 2------|
D|-- 4-------------- 4------ 4----|---- 4------ 4------ 4----------|
A| 3------------ 3-------------- 2|---------------- 2--------------|
E|--------------------------------|--------------------------------|
http://classicalguitartablature.blogspot.com/
E|--------------------------------|--------------------------------|
B| 1------ 0----------------------|---------------- 0--------------|
G| 2------ 2---------- 2-- 4------| 2------ 0------ 4-- 4---- 4----|
D|---- 1------ 1-- 4---------- 4--|---- 2------ 2 5-------- 5------|
A| 2-------------- 2--------------|-------------- 5----------------|
E|--------------------------------| 0------------------------------|
http://classicalguitartablature.blogspot.com/
E|--------------------------------|--------------------------------|
B|-------- 0---------- 0----------|--------------------------------|
G|---- 0------ 0---------- 0------| 0-------------- 2---- 1--------|
D| 2-------------------------- 4--|---- 2-- 4---------- 2---- 2----|
A| 4-------------- 4--------------|--------------------------------|
E|--------------------------------| 2-------------- 2--------------|
http://classicalguitartablature.blogspot.com/
E|--------------------------------|---------------------- 3------ 7|
B|---------------- 1---- 4--------| 3-------------- 5------------10|
G| 0------ 2------ 2-------- 2----| 0-- 0-- 3-- 4---------------- 9|
D|---- 1------ 1------ 1-------- 0|--------------------------------|
A| 2-------------- 2--------------|--------------------------------|
E|------------------------------ 0|--------------------------------|
http://classicalguitartablature.blogspot.com/
E|------------ 8------------------|------------ 7--10 8-- 7--------|
B|----------------10--------------|---- 8--10 8---- 8 8-- 8----10--|
G|-------- 9------ 9------ 9------|---- 8-------- 8---- 8----------|
D|----10--------------10------10--|---- 7--------------------------|
A|--------------------------------|--------------------------------|
E| 0-------------- 0--------------| 0------------ 0----------------|
http://classicalguitartablature.blogspot.com/
E| 7------------------------------|-------- 0-- 2 5-- 3-- 2-- 0-- 3|
B|---------- 0---------------- 0--|---- 0------------------------ 3|
G|-------- 0-------------- 0------|---- 0--------------------------|
D|---- 0-------------- 0----------|-- 2----------------------------|
A|-------------- 5----------------| 4-------------- 4--------------|
E| 0------------------------------|--------------------------------|
http://classicalguitartablature.blogspot.com/
E|---------- 5-- 2-------------- 2|---------- 5---- 3---- 2--------|
B|-------------- 3---------- 5-- 1|---------- 3---- 1------ 1------|
G| 3---- 3------ 3-------- 3---- 2|------ 2---- 3-- 2--------------|
D|-- 2-------------- 2------------|---- 2-------------- 1------ 1--|
A|--------------------------------|------------ 3-- 2--------------|
E| 2------------ 2----------------| 2------------------------------|
http://classicalguitartablature.blogspot.com/
E| 0------------------------------|-------- 0-- 2 5-- 3-- 2-- 0-- 3|
B| 2---------- 2------------------|---- 0------------------------ 3|
G| 0------ 0----------------------|---- 0--------------------------|
D|---- 2-------------- 2------ 2--|-- 2----------------------------|
A|------------------------ 2------| 4-------------- 4--------------|
E| 0------------ 3----------------|--------------------------------|
http://classicalguitartablature.blogspot.com/
E|---------- 5-- 2----------------|--------------------------------|
B|-------------- 3---------- 5----|---------- 0-- 0-- 1------------|
G| 3---- 3------ 3-------- 3------|------ 2-- 2-- 2-- 2---------- 2|
D|-- 2-------------- 2------------|---- 2---- 2-- 2-- 2------ 2----|
A|--------------------------------|--------------------------------|
E| 2------------ 2----------------| 2-------------------- 0--------|
http://classicalguitartablature.blogspot.com/
E|------------------------ 0-- 0--|-- 2------ 3--------------------|
B|-- 0-- 0-- 1-- 1-- 3 3-- 1------|---------- 3-------- 3----------|
G|------ 2-- 2-- 2-- 2 2----------|-------- 2------ 2--------------|
D|------ 2-- 2-- 2-- 2 2----------|------------ 1------------------|
A|--------------------------------|--------------------------------|
E|--------------------------------|-------- 1----------------------|
http://classicalguitartablature.blogspot.com/
E|---------------- 2--------------|--------------------------------|
B|---------------- 2------ 2------|--------------------------------|
G|-------------- 0---- 0----------|--------------------------------|
D|------------------ 2------------|--------------------------------|
A|--------------------------------|--------------------------------|
E|-------------- 0----------------|--------------------------------|
http://classicalguitartablature.blogspot.com/

0 ความคิดเห็น:

แสดงความคิดเห็น