To celebrate the anniversary, I am giving you (finally...) : iPhone LickByNeck !!!!!!

Nobody (BASIC)

Wonder Girls' tune fingerstyle chord melody guitar BASIC arrangement played in the key of Em.

Nobody - Wonder Girls - BASIC ARRANGEMENT played in the key of Em.
http://classicalguitartablature.blogspot.com/
E|--------------------------------|--------------------------------|
B|------ 5-------------------- 5--|---- 5------ 5-------- 8--------|
G|-------- 6-- 6------ 6-------- 6|---- 6------ 6------ 8 8--------|
D|-------- 7-- 7------ 7------ 7--|---- 7------ 7------ 7 7--------|
A|--------------------------------|--------------------------------|
E| 7-------------- 7--------------| 7-------------- 7--------------|
http://classicalguitartablature.blogspot.com/
E| 7-- 7-- 7-- 7 7---- 7----------| 8------------------------------|
B| 8-- 8-- 8-- 8 8---- 8-- 8------| 5------------------ 8-- 8------|
G| 7------ 7-- 7-- 7-- 7-- 7------| 5---------- 5---- 5---- 5------|
D|--------------------------------|-------- 5---------- 5-- 5------|
A| 7------------------------------| 0------------------------------|
E|---------------- 7--------------|-------------- 0----------------|
http://classicalguitartablature.blogspot.com/
http://classicalguitartablature.blogspot.com/
E| 5-- 5-- 5-- 5-- 5-- 5----------| 7------------------ 3----------|
B| 5-- 5-- 5-- 5-- 5-- 5-- 8------| 3---------- 3-------------- 5--|
G| 5-- 5------ 5-- 5-- 5-- 5------|-------- 4----------------------|
D|------------------------ 5-- 5--|--------------------------------|
A| 5------------------------------|---------------- 5--------------|
E|---------------- 5--------------| 3------------------------------|
http://classicalguitartablature.blogspot.com/
E| 3-- 3-- 3-- 3-- 3--------------| 3-- 3-- 3-- 3-- 3------ 3-- 3--|
B| 5-- 5-- 5------ 5------ 5-- 5--| 1---- 1 1-- 1-- 1------ 1-- 1--|
G| 4------------------------------| 2------------------ 2 2---- 2--|
D|-------------------- 5----------|--------------------------------|
A| 3------------------------------|--------------------------------|
E|---------------- 3--------------| 2-------------- 2--------------|
http://classicalguitartablature.blogspot.com/
E| 7-- 7-- 7-- 7-- 7-- 7------ 7--| 7-- 7-- 7-- 7 7----------------|
B| 7-- 7-- 7-- 7-- 7-- 7------ 7--| 7-- 7-- 7-- 7 7------------ 7--|
G| 8---------- 8-- 8-- 8------ 8--| 8---------- 8-- 8------ 8------|
D|--------------------------------|-------------------- 7----------|
A|---------------- 9--------------|---------------- 9--------------|
E| 7------------------------------| 7------------------------------|
http://classicalguitartablature.blogspot.com/
E| 3-- 3-- 3-- 3------ 0------ 0--| 3-- 3-- 3---- 3---- 0------ 0--|
B| 0-- 0-- 0-- 0------ 0------ 0--| 1-- 1-- 1-- 1------ 1------ 1--|
G| 0-- 0-- 0-- 0------ 0------ 0--|---- 0-- 0-- 0------ 0----------|
D|--------------------------------|--------------------------------|
A|--------------------------------| 0-------------- 0--------------|
E| 0-------------- 0--------------|--------------------------------|
http://classicalguitartablature.blogspot.com/
E|--------------------------------| 2-- 2-- 2-- 2------ 2----------|
B| 7-- 7-- 7-- 7------ 7----------| 3-- 3-- 3-- 3------ 3----------|
G| 5-- 5-- 5-- 5------ 5---- 7----| 4---------- 4------ 4------ 4--|
D| 5-- 5-- 5-- 5------ 5----------|--------------------------------|
A| 5------------------------------|---------------- 5--------------|
E|---------------- 5--------------| 3------------------------------|
http://classicalguitartablature.blogspot.com/
E| 3-- 3------ 3------------------|------------------ 7------------|
B| 5-- 5-- 5-- 5------ 5------ 5--| 8-- 8 8----10------10----------|
G| 4------ 4---------- 4------ 4--| 9-- 9-- 9-- 9------ 9---- 9----|
D|-------------------- 5------ 5--| 8-- 8-- 8-- 7------------------|
A| 3------------------------------| 9------------------------------|
E|---------------- 3--------------|---------------- 8--------------|
http://classicalguitartablature.blogspot.com/
E| 2-- 2-- 2---------- 2------ 2--|--------------------------------|
B| 5-- 5 5---- 5------ 5------ 5--| 7-- 7 7---- 5---- 7------------|
G| 2---------- 2------ 2------ 2--| 4-- 4 4---- 4---- 4------ 4----|
D|------------ 4------------------| 4-- 4 4---- 4---- 4-- 4--------|
A| 2-------------- 2--------------| 6------------ 6----------------|
E|--------------------------------|--------------------------------|
http://classicalguitartablature.blogspot.com/
E|-- 7---- 7----------------------| 2-- 0--------------------------|
B|---- 8-- 8--10--10-- 8-- 8-- 7--| 1-- 1---------------------- 1--|
G|---- 7-- 7-- 7-- 7-- 7------ 7--| 1-- 0------ 0---------- 0------|
D|------------ 9-- 9-- 9-- 9-- 9--|-------- 2---------- 2----------|
A|--------------------------------| 0------------------------------|
E| 0-------------- 7--------------|---------------- 0--------------|
http://classicalguitartablature.blogspot.com/
E|---- 5-- 5----------------------| 0------------------------------|
B|---- 5-- 5-- 8-- 8-- 7-- 7-- 5--| 0------ 3------------------ 3--|
G|---- 5-- 5-- 5-- 5-- 5-- 5-- 5--|------------------------ 0------|
D|------------ 5-- 5-- 5-- 5-- 5--|---- 0------ 0------ 0----------|
A| 5------------------------------|---------------- 5--------------|
E|---------------- 5--------------| 3------------------------------|
http://classicalguitartablature.blogspot.com/
E|-------------------- 3----------| 0-- 0------ 0---- 3---------- 7|
B| 5-- 5-- 3-- 5-------------- 3--| 1-- 1-- 3-- 1---- 1------ 0-- 8|
G| 4-- 4-- 4-- 4------------------|-------- 2----------------------|
D| 5-- 5-- 5-- 5---------- 5------|---------------------- 2--------|
A| 3------------------------------|--------------------------------|
E|---------------- 3--------------| 2-------------- 2--------------|
http://classicalguitartablature.blogspot.com/
E|-- 7---- 7 7-- 7-- 7-- 7-- 7----| 7------------------------------|
B|---- 8-- 8-- 8 8-- 8-- 8-- 8----| 8-------- 8-------- 8 8--------|
G| 8------ 8 8-- 8------ 8-- 8----| 8---- 8-------------- 8--------|
D|--------------------------------|--------------------------------|
A|-------------- 9----------------| 6------------ 6----------------|
E| 7------------------------------|--------------------------------|
http://classicalguitartablature.blogspot.com/
E| 7-- 7-- 7-- 7 7---- 7----------| 8------------------------------|
B| 8-- 8-- 8-- 8 8---- 8-- 8------| 5------------------ 8-- 8------|
G| 7------ 7-- 7-- 7-- 7-- 7------| 5---------- 5---- 5---- 5------|
D|--------------------------------|-------- 5---------- 5-- 5------|
A| 7------------------------------| 0------------------------------|
E|---------------- 7--------------|-------------- 0----------------|
http://classicalguitartablature.blogspot.com/
E| 5-- 5-- 5-- 5-- 5-- 5----------| 7------------------ 3----------|
B| 5-- 5-- 5-- 5-- 5-- 5-- 8------| 3---------- 3-------------- 5--|
G| 5-- 5------ 5-- 5-- 5-- 5------|-------- 4----------------------|
D|------------------------ 5-- 5--|--------------------------------|
A| 5------------------------------|---------------- 5--------------|
E|---------------- 5--------------| 3------------------------------|
http://classicalguitartablature.blogspot.com/
E| 3-- 3-- 3-- 3-- 3--------------| 3-- 3-- 3-- 3-- 3------ 3-- 3--|
B| 5-- 5-- 5------ 5------ 5-- 5--| 1---- 1 1-- 1-- 1------ 1-- 1--|
G| 4------------------------------| 2------------------ 2 2---- 2--|
D|-------------------- 5----------|--------------------------------|
A| 3------------------------------|--------------------------------|
E|---------------- 3--------------| 2-------------- 2--------------|
http://classicalguitartablature.blogspot.com/
E| 7-- 7-- 7-- 7-- 7-- 7------ 7--| 7-- 7-- 7-- 7 7----------------|
B| 7-- 7-- 7-- 7-- 7-- 7------ 7--| 7-- 7-- 7-- 7 7------------ 7--|
G| 8---------- 8-- 8-- 8------ 8--| 8---------- 8-- 8------ 8------|
D|--------------------------------|-------------------- 7----------|
A|---------------- 9--------------|---------------- 9--------------|
E| 7------------------------------| 7------------------------------|
http://classicalguitartablature.blogspot.com/
E|12------------------------------| 2-- 0------ 2-- 0--------------|
B|--------12----------------------| 1-- 1------ 1-- 1--------------|
G|----------------12------11------| 0-- 0------ 0-- 0--------------|
D|--------------------------------|--------------------------------|
A|--------------------------------| 0-- 0-- 0-- 0-- 0-- 0-- 0-- 0--|
E| 0-- 0-- 0-- 0-- 0-- 0-- 0-- 0--|--------------------------------|
http://classicalguitartablature.blogspot.com/
E| 5------------------------------| 0---------- 0------------------|
B| 5------ 8------ 7------ 5------| 3-- 3------ 3-- 3--------------|
G| 5------ 5------ 5------ 5------| 0-- 0---------- 0--------------|
D|-------- 5------ 5------ 5------|---- 0---------- 0--------------|
A| 5-- 5-- 5-- 5-- 5-- 5-- 5-- 5--|--------------------------------|
E|--------------------------------| 3-- 3-- 3-- 3-- 3-- 3-- 3-- 3--|
http://classicalguitartablature.blogspot.com/
E| 3-- 3-- 3-- 3------ 0------ 0--| 3-- 3-- 0-- 3------ 5----------|
B| 1-- 1-- 1-- 1------ 1------ 1--| 0-- 0-- 0-- 0-------------- 0--|
G| 0-- 0-- 0-- 0------ 0------ 0--|--------------------------------|
D|--------------------------------|--------------------------------|
A| 3-- 3-- 3-- 3-- 3-- 3-- 3-- 3--|--------------------------------|
E|--------------------------------| 2-- 2-- 2-- 2-- 2-- 2-- 2-- 2--|
http://classicalguitartablature.blogspot.com/
E| 7-- 7-- 7-- 7------------------| 7---------- 7------------------|
B| 8-- 8-- 8-- 8------10-- 8--10--| 7------ 7---------- 8-- 8------|
G|-------------------- 8-- 8-- 8--|---- 5--------------------------|
D|-------------------- 7-- 7-- 7--|--------------------------------|
A|--------------------------------| 6------------------------------|
E| 7-- 7-- 7-- 7-- 7-- 7-- 7-- 7--|--------------------------------|
http://classicalguitartablature.blogspot.com/
E| 7-- 7-- 7-- 7 7---- 7----------| 8------------------------------|
B| 8-- 8-- 8-- 8 8---- 8-- 8------| 5------------------ 8-- 8------|
G| 7------ 7-- 7-- 7-- 7-- 7------| 5---------- 5---- 5---- 5------|
D|--------------------------------|-------- 5---------- 5-- 5------|
A| 7------------------------------| 0------------------------------|
E|---------------- 7--------------|-------------- 0----------------|
http://classicalguitartablature.blogspot.com/
E| 5-- 5-- 5-- 5-- 5-- 5----------| 7------------------ 3----------|
B| 5-- 5-- 5-- 5-- 5-- 5-- 8------| 3---------- 3-------------- 5--|
G| 5-- 5------ 5-- 5-- 5-- 5------|-------- 4----------------------|
D|------------------------ 5-- 5--|--------------------------------|
A| 5------------------------------|---------------- 5--------------|
E|---------------- 5--------------| 3------------------------------|
http://classicalguitartablature.blogspot.com/
E| 3-- 3-- 3-- 3-- 3--------------| 3-- 3-- 3-- 3-- 3------ 3-- 3--|
B| 5-- 5-- 5------ 5------ 5-- 5--| 1---- 1 1-- 1-- 1------ 1-- 1--|
G| 4------------------------------| 2------------------ 2 2---- 2--|
D|-------------------- 5----------|--------------------------------|
A| 3------------------------------|--------------------------------|
E|---------------- 3--------------| 2-------------- 2--------------|
http://classicalguitartablature.blogspot.com/
E| 7-- 7-- 7-- 7-- 7-- 7------ 7--| 7-- 7-- 7-- 7 7----------------|
B| 7-- 7-- 7-- 7-- 7-- 7------ 7--| 7-- 7-- 7-- 7 7------------ 7--|
G| 8---------- 8-- 8-- 8------ 8--| 8---------- 8-- 8------ 8------|
D|--------------------------------|-------------------- 7----------|
A|---------------- 9--------------|---------------- 9--------------|
E| 7------------------------------| 7------------------------------|
http://classicalguitartablature.blogspot.com/
E| 7-- 7-- 7-- 7 7---- 7----------| 8------------------------------|
B| 8-- 8-- 8-- 8 8---- 8-- 8------| 5------------------ 8-- 8------|
G| 7------ 7-- 7-- 7-- 7-- 7------| 5---------- 5---- 5---- 5------|
D|--------------------------------|-------- 5---------- 5-- 5------|
A| 7------------------------------| 0------------------------------|
E|---------------- 7--------------|-------------- 0----------------|
http://classicalguitartablature.blogspot.com/
E| 5-- 5-- 5-- 5-- 5-- 5----------| 7------------------ 3----------|
B| 5-- 5-- 5-- 5-- 5-- 5-- 8------| 3---------- 3-------------- 5--|
G| 5-- 5------ 5-- 5-- 5-- 5------|-------- 4----------------------|
D|------------------------ 5-- 5--|--------------------------------|
A| 5------------------------------|---------------- 5--------------|
E|---------------- 5--------------| 3------------------------------|
http://classicalguitartablature.blogspot.com/
E| 3-- 3-- 3-- 3-- 3--------------| 3-- 3-- 3-- 3-- 3------ 3-- 3--|
B| 5-- 5-- 5------ 5------ 5-- 5--| 1---- 1 1-- 1-- 1------ 1-- 1--|
G| 4------------------------------| 2------------------ 2 2---- 2--|
D|-------------------- 5----------|--------------------------------|
A| 3------------------------------|--------------------------------|
E|---------------- 3--------------| 2-------------- 2--------------|
http://classicalguitartablature.blogspot.com/
E| 7-- 7-- 7-- 7-- 7-- 7------ 7--| 7-- 7-- 7-- 7 7----------------|
B| 7-- 7-- 7-- 7-- 7-- 7------ 7--| 7-- 7-- 7-- 7 7------------ 7--|
G| 8---------- 8-- 8-- 8------ 8--| 8---------- 8-- 8------ 8------|
D|--------------------------------|-------------------- 7----------|
A|---------------- 9--------------|---------------- 9--------------|
E| 7------------------------------| 7------------------------------|
http://classicalguitartablature.blogspot.com/
E|--------------------------------|--------------------------------|
B| 7---------- 5---------- 0------|--------------------------------|
G| 6---------- 4---------- 2------|--------------------------------|
D| 4---------- 4---------- 2------|------------------------------ 4|
A|--------------------------------|--------------------------------|
E| 5---------- 4---------- 2------|------------------------------ 0|
http://classicalguitartablature.blogspot.com/
E|--------------------------------|--------------------------------|
B| 3------------------------------|--------------------------------|
G| 0------------------------------|--------------------------------|
D|--------------------------------|--------------------------------|
A|--------------------------------|--------------------------------|
E|--------------------------------|--------------------------------|
http://classicalguitartablature.blogspot.com/

0 ความคิดเห็น:

แสดงความคิดเห็น