To celebrate the anniversary, I am giving you (finally...) : iPhone LickByNeck !!!!!!

You Don't Have To Say You Love Me (BASIC)

Dusty Springfield's tune fingerstyle chord melody guitar BASIC arrangement played in the key of Dm.

You Don't Have To Say You Love-Dusty Springfield - BASIC ARRANGEMENT played in the key of Dm.
http://classicalguitartablature.blogspot.com/
E|---------------------- 5------ 6|---------- 5-- 3----------------|
B|---------- 5-- 6-------------- 3|---------- 3-- 3----------------|
G|------ 7---------------------- 3|------------ 3 3----------------|
D|--------------------------------|--------------------------------|
A|--------------------------------|--------------------------------|
E|--------------------------------|-------- 3-------------- 1------|
http://classicalguitartablature.blogspot.com/
E|----------------------10------12|--------------13----------------|
B|------ 8--10--11--------------10|--------------11----------------|
G|------ 7-- 7-- 7--------------12|--------------10----------------|
D|-- 8--------------------------11|--------------------------------|
A|--------------------------------|------ 0--------------10--------|
E| 0------------------------------|--------------------------------|
http://classicalguitartablature.blogspot.com/
http://classicalguitartablature.blogspot.com/
E|13------------------------ 5-- 6|---------- 5-- 3------ 3--------|
B|10---------- 5 6-------------- 3|------ 3------------------------|
G|10-------- 7------------------ 3|---- 3------ 3------ 3----------|
D|--------------------------------|-- 3-------------- 3------------|
A|--------------------------------|-------------------------- 5 4--|
E|10------------------------------| 3------------ 3----------------|
http://classicalguitartablature.blogspot.com/
E|---------------- 0-------- 3----| 5------ 5----------------------|
B|-------- 1 1 3-- 1------ 1------| 5-------- 8---- 6------ 6------|
G|---- 0-------------- 0----------| 5-- 5---------- 5-- 5----------|
D|-- 2-------------- 2-------- 2--|-- 7-------- 7---- 7------------|
A| 3-------------- 3--------------| 8-------------- 8--------------|
E|--------------------------------|-------------------------- 8 5--|
http://classicalguitartablature.blogspot.com/
E|-------------------------- 1-- 3|------ 3-------------------- 1--|
B|-------- 3-- 1-- 3---- 3--------| 3-------- 6-- 5------ 5---- 3--|
G|---- 2---- 3 2-- 2-- 2----------|---- 3-------- 3---- 3------ 3--|
D|-- 3-------------- 3-------- 3--|-- 5-------- 5---- 5------------|
A| 1-------------- 1--------------|--------------------------------|
E|--------------------------------| 3------------ 3---------- 1----|
http://classicalguitartablature.blogspot.com/
E| 3---------- 1-- 0--------------| 0------------------------------|
B| 3------ 3------ 3------ 3-- 3--| 2------ 2------ 3---- 3------ 2|
G|---- 3---- 3-- 3---- 3---- 3----| 0-- 0---- 0-------- 0---- 0-- 0|
D|-- 2---------- 2-- 2------------|-- 2-------- 2---- 2-------- 2 2|
A|--------------------------------| 0-------------- 0--------------|
E| 0-------------- 0--------------|--------------------------------|
http://classicalguitartablature.blogspot.com/
E|-------------------------- 5-- 6|---------- 5-- 3------ 3--------|
B|------------ 5 6-------------- 3|------ 3------------------------|
G|---------- 7------------------ 3|---- 3------ 3------ 3----------|
D|--------------------------------|-- 3-------------- 3------------|
A| 0------------------------------|-------------------------- 5 4--|
E|--------------------------------| 3------------ 3----------------|
http://classicalguitartablature.blogspot.com/
E|---------------- 0-------- 3----| 5------ 5----------------------|
B|-------- 1 1 3-- 1------ 1------| 5-------- 8---- 6------ 6------|
G|---- 0-------------- 0----------| 5-- 5---------- 5-- 5----------|
D|-- 2-------------- 2-------- 2--|-- 7-------- 7---- 7------------|
A| 3-------------- 3--------------| 8-------------- 8--------------|
E|--------------------------------|-------------------------- 8 5--|
http://classicalguitartablature.blogspot.com/
E|-------------------------- 1-- 3|------ 3-------------------- 1--|
B|-------- 3-- 1-- 3---- 3--------| 3-------- 6-- 5------ 5---- 3--|
G|---- 2---- 3 2-- 2-- 2----------|---- 3-------- 3---- 3------ 3--|
D|-- 3-------------- 3-------- 3--|-- 5-------- 5---- 5------------|
A| 1-------------- 1--------------|--------------------------------|
E|--------------------------------| 3------------ 3---------- 1----|
http://classicalguitartablature.blogspot.com/
E|------------------------------ 5|--------------------------------|
B| 8---- 8---- 6-- 5---- 5-- 6 8 5|-------- 5-------------- 5------|
G| 7-- 7---------- 7-- 7-------- 6|---- 6-------------- 6---- 6----|
D|-- 8------ 8------ 8------------|-- 5------ 5------ 5-------- 5--|
A|------------------------------ 0|------------ 0-- 0--------------|
E| 0-------------- 0--------------|--------------------------------|
http://classicalguitartablature.blogspot.com/
E|---- 0---- 2---- 3-- 2-------- 0|---- 2---- 0 2------------------|
B| 3-- 3---- 3 3-- 3-- 3---- 5 3 0|---- 0---- 0 0-------- 2--------|
G| 2---------- 2-- 2---- 2-- 2 2 0|-- 0-- 0-- 0 0-- 2-- 2---- 2----|
D|-- 4---- 4---------------- 4 4--|------------------ 2-------- 2--|
A| 5-------------- 2--------------|---------------- 0--------------|
E|------------------------------ 0|--------------------------------|
http://classicalguitartablature.blogspot.com/
E|---------- 5---- 7--------------| 3-- 5---- 3 5-- 3---------- 2--|
B| 7-- 8------ 7-- 7--10---- 8 7--| 0-- 0---- 0 0-- 2------ 2------|
G| 6-- 6---------- 7-- 7----------| 0 0---- 0---------- 2----------|
D|-- 7---- 7-------- 7---- 7------|------------------ 2------ 2----|
A| 5------------------------------|---------------- 0--------------|
E|---------------- 7--------------| 0------------------------------|
http://classicalguitartablature.blogspot.com/
E| 5-------------- 5-- 2------ 2--| 7------------------------------|
B| 7-- 7------ 7-- 2-- 2---- 2----| 7-- 7---- 7---------- 7--------|
G| 6-- 6---- 6---- 2 2---- 2------| 7---------- 9 7---- 7---- 7 7--|
D|-- 7---- 7----------------------|-- 9---- 9-------- 9------------|
A| 5------------------------------|--------------------------------|
E|---------------- 2--------------| 7-------------- 7--------------|
http://classicalguitartablature.blogspot.com/
E|---- 0------ 2 3-- 3 5------ 7--| 5-- 5--------------------------|
B| 3---------- 2 0-- 0------ 0----| 2-------------- 2-- 2-- 5-- 5--|
G| 0---------- 2-- 0---- 0--------| 2------ 2-- 2------------------|
D|-- 0---- 0----------------------|-- 2------ 2------ 2------ 2----|
A|--------------------------------| 0------------------------------|
E| 3-------- 2---- 0--------------|--------------------------------|
http://classicalguitartablature.blogspot.com/
E|-------------------------- 5-- 6|---------- 5-- 3------ 3--------|
B| 6---------- 5 6-------------- 3|------ 3------------------------|
G| 7-------- 7------------------ 3|---- 3------ 3------ 3----------|
D| 7------------------------------|-- 3-------------- 3------------|
A| 5------------------------------|-------------------------- 5 4--|
E|--------------------------------| 3------------ 3----------------|
http://classicalguitartablature.blogspot.com/
E|---------------- 0-------- 3----| 5------ 5----------------------|
B|-------- 1 1 3-- 1------ 1------| 5-------- 8---- 6------ 6------|
G|---- 0-------------- 0----------| 5-- 5---------- 5-- 5----------|
D|-- 2-------------- 2-------- 2--|-- 7-------- 7---- 7------------|
A| 3-------------- 3--------------| 8-------------- 8--------------|
E|--------------------------------|-------------------------- 8 5--|
http://classicalguitartablature.blogspot.com/
E|-------------------------- 1-- 3|------ 3-------------------- 1--|
B|-------- 3-- 1-- 3---- 3--------| 3-------- 6-- 5------ 5---- 3--|
G|---- 2---- 3 2-- 2-- 2----------|---- 3-------- 3---- 3------ 3--|
D|-- 3-------------- 3-------- 3--|-- 5-------- 5---- 5------------|
A| 1-------------- 1--------------|--------------------------------|
E|--------------------------------| 3------------ 3---------- 1----|
http://classicalguitartablature.blogspot.com/
E|--------------------------------|--------------------------------|
B| 8------ 8-- 6-- 5---- 5---- 6--| 3------ 3-------------- 3------|
G| 7-- 7---------- 6-- 6----------| 5-- 5---- 5-------- 5---- 5----|
D|-- 8------ 8------ 5------ 5----|-- 3-------------- 3-------- 3--|
A|--------------------------------| 5---------- 5-- 5--------------|
E| 0-------------- 5--------------|--------------------------------|
http://classicalguitartablature.blogspot.com/
E|---- 0---- 2---- 3-- 2-------- 0|---- 2---- 0 2------------------|
B| 3-- 3---- 3 3-- 3-- 3---- 5 3 0|---- 0---- 0 0-------- 2--------|
G| 2---------- 2-- 2---- 2-- 2 2 0|-- 0-- 0-- 0 0-- 2-- 2---- 2----|
D|-- 4---- 4---------------- 4 4--|------------------ 2-------- 2--|
A| 5-------------- 2--------------|---------------- 0--------------|
E|------------------------------ 0|--------------------------------|
http://classicalguitartablature.blogspot.com/
E|---------- 5---- 7--------------| 3-- 5---- 3 5-- 3---------- 2--|
B| 7-- 8------ 7-- 7--10---- 8 7--| 0-- 0---- 0 0-- 2------ 2------|
G| 6-- 6---------- 7-- 7----------| 0 0---- 0---------- 2----------|
D|-- 7---- 7-------- 7---- 7------|------------------ 2------ 2----|
A| 5------------------------------|---------------- 0--------------|
E|---------------- 7--------------| 0------------------------------|
http://classicalguitartablature.blogspot.com/
E| 5------ 5----------------------| 5------ 5----------------------|
B| 7-------------- 5------ 5-- 7--| 7-------------- 5------ 5-- 7--|
G|---- 7------ 7-- 5-- 5----------|---- 7------ 7-- 5-- 5----------|
D|-- 7------ 7-- 5-- 5------ 5----|-- 7------ 7-- 5-- 5------ 5----|
A| 5-------------- 5--------------| 5-------------- 5--------------|
E|--------------------------------|--------------------------------|
http://classicalguitartablature.blogspot.com/
E| 5------ 5----------------------|--------------------------------|
B| 7---------------- 5-------- 5--|---------------- 7--------------|
G| 7-- 7-------- 7-------- 5------|---- 5---------- 7--------------|
D|-- 7------ 7---- 5-- 5----------| 5------------ 7----------------|
A| 5------------------------------|-------------- 5----------------|
E|--------------------------------|--------------------------------|
http://classicalguitartablature.blogspot.com/
E|--------------------------------|--------------------------------|
B|--------------------------------|--------------------------------|
G|--------------------------------|--------------------------------|
D|--------------------------------|--------------------------------|
A|--------------------------------|--------------------------------|
E|--------------------------------|--------------------------------|
http://classicalguitartablature.blogspot.com/

0 ความคิดเห็น:

แสดงความคิดเห็น