To celebrate the anniversary, I am giving you (finally...) : iPhone LickByNeck !!!!!!

Time In A Bottle (BASIC)

Jim Croce's tune fingerstyle chord melody guitar BASIC arrangement played in the key of Dm.

Time In A Bottle - Jim Croce - BASIC ARRANGEMENT played in the key of Dm.
http://classicalguitartablature.blogspot.com/
E| 5-------------------- 5|---------------------- 5|
B| 6-------------------- 2|------ 3------ 3--------|
G| 7---- 7------ 7------ 2|-------- 2---- 2--------|
D|---- 7------ 7---- 7----|---- 2---- 2-------- 2--|
A| 5-------------------- 4|------------------------|
E|------------------------|------------------------|
http://classicalguitartablature.blogspot.com/
E|------------------------|------------------------|
B| 6----------------------| 8----------------------|
G| 7---- 7-------- 7------| 7------ 7---- 7--------|
D|---- 7------ 7------ 7--|---- 5------ 5---- 5----|
A|------------------------|------------------------|
E| 8----------------------| 7----------------------|
http://classicalguitartablature.blogspot.com/
http://classicalguitartablature.blogspot.com/
E| 3---- 0------ 1--------| 3----------------------|
B| 3------ 3---- 3--------| 3------ 6---- 5--------|
G|---- 2------ 2------ 2 3|-------- 3---- 3--------|
D|------------------------|---- 3---- 3-------- 3--|
A| 1----------------------|------------------------|
E|------------------------| 3----------------------|
http://classicalguitartablature.blogspot.com/
E|------------------------|------------------------|
B| 2------ 3---- 5------ 8|------ 6-------- 5------|
G| 0------ 0---- 0------ 0|------ 0-------- 0------|
D|---- 2 3---- 3 5-- 5----|-- 8------ 7-- 5---- 5--|
A| 0----------------------| 0----------------------|
E|------------------------|------------------------|
http://classicalguitartablature.blogspot.com/
E|------------------------|---------------- 5------|
B|------------------------|------------------------|
G|------------------------|------------------------|
D|------------------------|------------------------|
A|------------------------|------------------------|
E|------------------------|------------------------|
http://classicalguitartablature.blogspot.com/
E| 5-------------- 6-- 5--| 5------------ 6-- 5----|
B|-------- 6--------------| 5---- 5----------------|
G|---- 7------ 7----------|---- 3---- 3------------|
D|------------------------|------------------------|
A| 5----------------------| 4----------------------|
E|------------------------|------------------------|
http://classicalguitartablature.blogspot.com/
E|------------------------|-------------------- 5--|
B|10--10------------------|------------ 6----------|
G|10--10----10------10----|-------- 7------ 7------|
D|10----10------10--------|-- 7--------------------|
A|------------------------|------------------------|
E| 8----------------------| 7----------------------|
http://classicalguitartablature.blogspot.com/
E|---------------------- 3|------ 5------ 6------ 5|
B| 8------------ 8---- 8--| 3-------------------- 2|
G| 7---- 7------ 7---- 7--|-- 3------ 3-------- 3 2|
D|---- 8---- 8-- 8---- 8--|------------------------|
A|------------------------|------------------------|
E| 6----------------------| 3----------------------|
http://classicalguitartablature.blogspot.com/
E|------------------------|-------------------- 5--|
B|------ 3-------- 5------| 8------ 6------ 5------|
G|-------- 0--------------| 0------ 0------ 0------|
D|---- 2------ 3------ 5--|---- 8------ 7-- 5------|
A| 0----------------------| 0----------------------|
E|------------------------|------------------------|
http://classicalguitartablature.blogspot.com/
E| 5---------- 5-- 6-- 5--|---------------------- 8|
B| 6------ 6------ 6-- 6--|10----------10--1110-- 8|
G|---- 7---------- 7-- 7--|10------10--------------|
D|------------------------|----10------------------|
A| 5----------------------|------------------------|
E|------------------------| 8-------------------- 6|
http://classicalguitartablature.blogspot.com/
E|------ 6------ 5------ 3|------ 5-------- 6------|
B|------ 8------ 8------ 3|------ 3----------------|
G|-- 7------ 7-------- 7--|-- 3-------- 3------ 3--|
D|------------------------|------------------------|
A|------------------------|------------------------|
E|---------------------- 3|------------------------|
http://classicalguitartablature.blogspot.com/
E| 5------------ 6---- 5--| 3------------ 3------ 5|
B| 6-------- 6------------| 3------ 6------------ 2|
G| 7---- 7----------------| 3------ 3------------ 2|
D|---- 7------------------|---- 3------ 3------ 3--|
A| 0----------------------|------------------------|
E|------------------------| 3----------------------|
http://classicalguitartablature.blogspot.com/
E|------------------------|-------------------- 5--|
B|------ 3-------- 5------| 8------ 6------ 5------|
G|-------- 0--------------| 0------ 0------ 0------|
D|---- 2------ 3------ 5--|---- 8------ 7-- 5------|
A| 0----------------------| 0----------------------|
E|------------------------|------------------------|
http://classicalguitartablature.blogspot.com/
E| 5-------------- 6-- 5--| 5------------ 6-- 5----|
B|-------- 6--------------| 5---- 5----------------|
G|---- 7------ 7----------|---- 3---- 3------------|
D|------------------------|------------------------|
A| 5----------------------| 4----------------------|
E|------------------------|------------------------|
http://classicalguitartablature.blogspot.com/
E|------------------------|-------------------- 5--|
B|10--10------------------|------------ 6----------|
G|10--10----10------10----|-------- 7------ 7------|
D|10----10------10--------|-- 7--------------------|
A|------------------------|------------------------|
E| 8----------------------| 7----------------------|
http://classicalguitartablature.blogspot.com/
E|---------------------- 3|------ 5------ 6------ 5|
B| 8------------ 8---- 8--| 3-------------------- 2|
G| 7---- 7------ 7---- 7--|-- 3------ 3-------- 3 2|
D|---- 8---- 8-- 8---- 8--|------------------------|
A|------------------------|------------------------|
E| 6----------------------| 3----------------------|
http://classicalguitartablature.blogspot.com/
E|------------------------|-------------------- 5--|
B|------ 3-------- 5------| 8------ 6------ 5------|
G|-------- 0--------------| 0------ 0------ 0------|
D|---- 2------ 3------ 5--|---- 8------ 7-- 5------|
A| 0----------------------| 0----------------------|
E|------------------------|------------------------|
http://classicalguitartablature.blogspot.com/
E| 5---------- 5-- 6-- 5--|---------------------- 8|
B| 6------ 6------ 6-- 6--|10----------10--1110-- 8|
G|---- 7---------- 7-- 7--|10------10--------------|
D|------------------------|----10------------------|
A| 5----------------------|------------------------|
E|------------------------| 8-------------------- 6|
http://classicalguitartablature.blogspot.com/
E|------ 6------ 5------ 3|------ 5-------- 6------|
B|------ 8------ 8------ 3|------ 3----------------|
G|-- 7------ 7-------- 7--|-- 3-------- 3------ 3--|
D|------------------------|------------------------|
A|------------------------|------------------------|
E|---------------------- 3|------------------------|
http://classicalguitartablature.blogspot.com/
E| 5------------ 6---- 5--| 3------------ 3------ 5|
B| 6-------- 6------------| 3------ 6------------ 2|
G| 7---- 7----------------| 3------ 3------------ 2|
D|---- 7------------------|---- 3------ 3------ 3--|
A| 0----------------------|------------------------|
E|------------------------| 3----------------------|
http://classicalguitartablature.blogspot.com/
E|------------------------|---------------- 5------|
B|------ 3-------- 5------| 8------ 6------ 5-- 5--|
G|-------- 0--------------| 0------ 0------ 0-- 0--|
D|---- 2------ 3------ 5--|---- 8------ 7 5---- 5--|
A| 0----------------------| 0----------------------|
E|------------------------|------------------------|
http://classicalguitartablature.blogspot.com/
E| 5-- 5-- 5------------ 7|------------------------|
B| 7-- 7-- 7---------- 710|----10-- 7--------------|
G| 7------ 7------ 7------| 9-------- 9-- 7--------|
D|------------ 7----------|------------------------|
A| 5----------------------|------------------------|
E|------------------------| 9----------------------|
http://classicalguitartablature.blogspot.com/
E|------------------------| 7----------------------|
B| 7--10--10--------------| 7--10-- 7--------------|
G| 7-------------- 7------| 7---------- 9 7--------|
D| 9---------- 9------ 9--|-------------------- 7--|
A|------------------------| 0----------------------|
E| 7----------------------|------------------------|
http://classicalguitartablature.blogspot.com/
E|------------------------|------------------------|
B| 0-- 3-- 3--------------|------------------------|
G| 0-------------- 0------|-------- 2------ 2------|
D| 0---------- 0------ 0--|---- 0------ 0------ 0--|
A|------------------------|------------------------|
E| 3----------------------| 2----------------------|
http://classicalguitartablature.blogspot.com/
E|------------------------|---------------- 5------|
B|------------ 3----------|------------ 0------ 5--|
G|-------- 0------ 0------|-------- 0--------------|
D|---- 4-------------- 4--|---- 0------------------|
A|---------------------- 0|------------------------|
E| 0----------------------|------------------------|
http://classicalguitartablature.blogspot.com/
E| 5-- 5-- 5------------ 7|------------------------|
B| 7-- 7-- 7---------- 710|----10-- 7--------------|
G| 7------ 7------ 7------| 9-------- 9-- 7--------|
D|------------ 7----------|------------------------|
A| 5----------------------|------------------------|
E|------------------------| 9----------------------|
http://classicalguitartablature.blogspot.com/
E|------------------------| 7----------------------|
B| 7--10--10--------------| 7--10-- 7--------------|
G| 7-------------- 7------| 7---------- 9 7--------|
D| 9---------- 9------ 9--|-------------------- 7--|
A|------------------------| 0----------------------|
E| 7----------------------|------------------------|
http://classicalguitartablature.blogspot.com/
E|------------------------|------------------------|
B| 0-- 3-- 3--------------|------------------------|
G| 0-------------- 0------|-------- 2------ 2------|
D| 0---------- 0------ 0--|---- 0------ 0------ 0--|
A|------------------------|------------------------|
E| 3----------------------| 2----------------------|
http://classicalguitartablature.blogspot.com/
E|------------------------|------------------------|
B| 2------ 3---- 5--------| 8------ 6------ 5------|
G| 0------ 0---- 0--------| 0------ 0------ 0------|
D|---- 2------ 4------ 5--|---- 8------ 7 5---- 5--|
A|------------------------| 0----------------------|
E| 0----------------------|------------------------|
http://classicalguitartablature.blogspot.com/
E| 5-------------------- 5|---------------------- 5|
B| 6-------------------- 2|------ 3------ 3--------|
G| 7------ 7------ 7---- 2|-------- 2---- 2--------|
D|---- 7------ 7------ 7--|---- 2---- 2-------- 2--|
A| 5-------------------- 4|------------------------|
E|------------------------|------------------------|
http://classicalguitartablature.blogspot.com/
E|------------------------|------------------------|
B| 6----------------------| 8----------------------|
G| 7---- 7-------- 7------| 7------ 7---- 7--------|
D|---- 7------ 7------ 7--|---- 5------ 5---- 5----|
A|------------------------|------------------------|
E| 8----------------------| 7----------------------|
http://classicalguitartablature.blogspot.com/
E| 3---- 0------ 1--------| 3----------------------|
B| 3------ 3---- 3--------| 3------ 6---- 5--------|
G|---- 2------ 2------ 2 3|-------- 3---- 3--------|
D|------------------------|---- 3---- 3-------- 3--|
A| 1----------------------|------------------------|
E|------------------------| 3----------------------|
http://classicalguitartablature.blogspot.com/
E|------------------------|------------------------|
B| 2------ 3---- 5------ 8|------ 6-------- 5------|
G| 0------ 0---- 0------ 0|------ 0-------- 0------|
D|---- 2 3---- 3 5-- 5----|-- 8------ 7-- 5---- 5--|
A| 0----------------------| 0----------------------|
E|------------------------|------------------------|
http://classicalguitartablature.blogspot.com/
E|------------------------|---------------- 5------|
B|------------------------|------------------------|
G|------------------------|------------------------|
D|------------------------|------------------------|
A|------------------------|------------------------|
E|------------------------|------------------------|
http://classicalguitartablature.blogspot.com/
E|------------------------|------------------------|
B|---- 3------------------|------------------------|
G|---- 4------------------|------------------------|
D|-- 3--------------------|------------------------|
A| 5----------------------|------------------------|
E|------------------------|------------------------|
http://classicalguitartablature.blogspot.com/

0 ความคิดเห็น:

แสดงความคิดเห็น