To celebrate the anniversary, I am giving you (finally...) : iPhone LickByNeck !!!!!!
0 com

Sesame Street

Popular children tune played in the key of F.

http://classicalguitartablature.blogspot.com/
Sesame Street played in the key of F.

ClassicalGuitarTablature http://classicalguitartablature.blogspot.com/
E|--------------------------------|--------------------------------|
B|10----10------ 8------ 8------10|------10------ 8----10 8--------|
G|10----10------10------10------10|------10------10----1010--------|
D|10------10---- 8------ 8------10|------10------ 8---- 8 8--------|
A| 8------ 8-- 0 8------ 8---- 0 8|------ 8-------------- 8--------|
E|--------------------------------|-------------- 8---- 8------10--|
ClassicalGuitarTablature http://classicalguitartablature.blogspot.com/
E|------ 1------------------------|--------------------------------|
B|------ 1------------ 3------ 3--|---------------------- 3--------|
G|-------------------- 5-- 5-- 3--|------ 3------ 3---- 5 3--------|
D|---- 3-------------- 3------ 3--|---- 3-------- 3----------------|
A|--------------------------------|-------------- 5----------------|
E| 1-------------- 5---------- 6--|------------------------------ 1|
ClassicalGuitarTablature http://classicalguitartablature.blogspot.com/
E|------ 1------------------------|--------------------------------|
B|------ 1------------ 3----------|--------------------------------|
G|-------------------- 5------ 3--|-------- 3-------------- 3------|
D|---- 3-------------- 3------ 3--|---- 3-------------- 3----------|
A|--------------------------------|---------------- 5--------------|
E|-------------- 5------------ 6--|--------------------------------|
ClassicalGuitarTablature http://classicalguitartablature.blogspot.com/
E|-------- 1----------------------|--------------------------------|
B|-------- 1-- 1------ 3------ 3--|-------------------- 3----------|
G|-------------------- 5------ 3--|-------------- 5----------------|
D|---- 3-------------- 3------ 3--|---- 3-------- 3----------------|
A|--------------------------------|------ 3---- 3 5----------------|
E| 1------------ 5------------ 6--|--------------------------------|
ClassicalGuitarTablature http://classicalguitartablature.blogspot.com/
E|--------------------------------|--------------------------------|
B| 5---------- 6---------- 8------|---- 5-------- 6------ 8------ 9|
G| 3---------- 3---------- 5------|---- 3-------- 3------ 5--------|
D| 5---------- 6---------- 8------|---- 5-------- 6------ 8------ 6|
A| 3---------- 5---------- 7------|---- 3-------- 5-------- 7------|
E|--------------------------------|------------------------------ 6|
ClassicalGuitarTablature http://classicalguitartablature.blogspot.com/
E|--------------------------------|--------------------------------|
B|---- 9 8------ 6----------------|------------ 3-- 4--------------|
G| 7-- 7 7------ 7---- 7------ 5--|-------- 5------ 6---- 7--------|
D|------ 6------ 7---- 7------ 5--|-------- 4---- 5-------- 6---- 3|
A|--------------------------------|-------- 5------ 6------ 7------|
E|-------------- 7------------ 8--|------------------------------ 1|
ClassicalGuitarTablature http://classicalguitartablature.blogspot.com/
E|--------------------------------|--------------------------------|
B| 1------------------------------|---- 3-------------- 3----------|
G| 2------------------------------|---- 3-------------- 3----------|
D|---- 3 3------ 3---- 3----------|---- 3-------------- 2----------|
A|-------------- 5----------------|-------- 4-- 0 3----------------|
E|------------------------ 4------| 3------------------------------|
ClassicalGuitarTablature http://classicalguitartablature.blogspot.com/
E|------ 1------------------------|--------------------------------|
B|------ 1------------ 3------ 3--|---------------------- 3--------|
G|-------------------- 5-- 5-- 3--|------ 3------ 3---- 5 3--------|
D|---- 3-------------- 3------ 3--|---- 3-------- 3----------------|
A|--------------------------------|-------------- 5----------------|
E| 1-------------- 5---------- 6--|------------------------------ 1|
ClassicalGuitarTablature http://classicalguitartablature.blogspot.com/
E|------ 1------------------------|--------------------------------|
B|------ 1------------ 3----------|--------------------------------|
G|-------------------- 5------ 3--|-------- 3-------------- 3------|
D|---- 3-------------- 3------ 3--|---- 3-------------- 3----------|
A|--------------------------------|---------------- 5--------------|
E|-------------- 5------------ 6--|--------------------------------|
ClassicalGuitarTablature http://classicalguitartablature.blogspot.com/
E|-------- 1----------------------|--------------------------------|
B|-------- 1-- 1------ 3------ 3--|-------------------- 3----------|
G|-------------------- 5------ 3--|-------------- 5----------------|
D|---- 3-------------- 3------ 3--|---- 3-------- 3----------------|
A|--------------------------------|------ 3---- 3 5----------------|
E| 1------------ 5------------ 6--|--------------------------------|
ClassicalGuitarTablature http://classicalguitartablature.blogspot.com/
E|--------------------------------|--------------------------------|
B| 5---------- 6---------- 8------|---- 5-------- 6------ 8------ 9|
G| 3---------- 3---------- 5------|---- 3-------- 3------ 5--------|
D| 5---------- 6---------- 8------|---- 5-------- 6------ 8------ 6|
A| 3---------- 5---------- 7------|---- 3-------- 5-------- 7------|
E|--------------------------------|------------------------------ 6|
ClassicalGuitarTablature http://classicalguitartablature.blogspot.com/
E|--------------------------------|--------------------------------|
B|---- 9 8------ 6----------------|------------ 3-- 4--------------|
G| 7-- 7 7------ 7---- 7------ 5--|-------- 5------ 6---- 7--------|
D|------ 6------ 7---- 7------ 5--|-------- 4---- 5-------- 6---- 3|
A|--------------------------------|-------- 5------ 6------ 7------|
E|-------------- 7------------ 8--|------------------------------ 1|
ClassicalGuitarTablature http://classicalguitartablature.blogspot.com/
E|--------------------------------|--------------------------------|
B| 1------------------------------|---- 3-------------- 3----------|
G| 2------------------------------|---- 3-------------- 3----------|
D|---- 3 3------ 3---- 3----------|---- 3-------------- 2----------|
A|-------------- 5----------------|-------- 4-- 0 3----------------|
E|------------------------ 4------| 3------------------------------|
ClassicalGuitarTablature http://classicalguitartablature.blogspot.com/
E|--------------------------------|--------------------------------|
B|-------------------- 2----------|------ 2---- 3-------- 3--------|
G|-------------- 2-------- 2---- 4|---- 4 4---- 4-------- 4--------|
D|-------- 2-- 2---------------- 2|-------------------- 2----------|
A| 0-- 0-- 0-- 0 0---- 0----------| 0---- 0---- 0------------------|
E|--------------------------------|--------------------------------|
ClassicalGuitarTablature http://classicalguitartablature.blogspot.com/
E|--------------------------------|--------------------------------|
B|-------------------- 2----------|------ 2---- 3---------------- 2|
G|-------------- 2----------------| 4---- 2---- 2---------- 2-- 4 2|
D|---- 2-- 2-- 2---------- 2------| 2-- 2-------------- 2-------- 2|
A| 0---- 0 0-- 0-- 0-- 0----------| 0------ 0-- 0-------------- 0 0|
E|--------------------------------|--------------------------------|
ClassicalGuitarTablature http://classicalguitartablature.blogspot.com/
E|--------------------------------|--------------------------------|
B|-------------------- 5----------| 5------ 5------ 5------ 5------|
G|---- 4 2------ 4---- 7----------| 5------ 5------ 3------ 3------|
D|---- 2 2------ 2---- 6------ 6--| 5------ 4------ 3------ 5------|
A|---- 0 0---- 0 0---- 7----------|-------- 5-------------- 3------|
E|--------------------------------| 5-------------- 3--------------|
ClassicalGuitarTablature http://classicalguitartablature.blogspot.com/
E|------ 1------------------------|--------------------------------|
B|------ 1------------ 3------ 3--|---------------------- 3--------|
G|-------------------- 5-- 5-- 3--|------ 3------ 3---- 5 3--------|
D|---- 3-------------- 3------ 3--|---- 3-------- 3----------------|
A|--------------------------------|-------------- 5----------------|
E| 1-------------- 5---------- 6--|------------------------------ 1|
ClassicalGuitarTablature http://classicalguitartablature.blogspot.com/
E|------ 1------------------------|--------------------------------|
B|------ 1------------ 3----------|--------------------------------|
G|-------------------- 5------ 3--|-------- 3-------------- 3------|
D|---- 3-------------- 3------ 3--|---- 3-------------- 3----------|
A|--------------------------------|---------------- 5--------------|
E|-------------- 5------------ 6--|--------------------------------|
ClassicalGuitarTablature http://classicalguitartablature.blogspot.com/
E|-------- 1----------------------|--------------------------------|
B|-------- 1-- 1------ 3------ 3--|-------------------- 3----------|
G|-------------------- 5------ 3--|-------------- 5----------------|
D|---- 3-------------- 3------ 3--|---- 3-------- 3----------------|
A|--------------------------------|------ 3---- 3 5----------------|
E| 1------------ 5------------ 6--|--------------------------------|
ClassicalGuitarTablature http://classicalguitartablature.blogspot.com/
E|--------------------------------|--------------------------------|
B| 5---------- 6---------- 8------|---- 5-------- 6------ 8------ 9|
G| 3---------- 3---------- 5------|---- 3-------- 3------ 5--------|
D| 5---------- 6---------- 8------|---- 5-------- 6------ 8------ 6|
A| 3---------- 5---------- 7------|---- 3-------- 5-------- 7------|
E|--------------------------------|------------------------------ 6|
ClassicalGuitarTablature http://classicalguitartablature.blogspot.com/
E|--------------------------------|--------------------------------|
B|---- 9 8------ 6----------------|------------ 3-- 4--------------|
G| 7-- 7 7------ 7---- 7------ 5--|-------- 5------ 6---- 7--------|
D|------ 6------ 7---- 7------ 5--|-------- 4---- 5-------- 6---- 3|
A|--------------------------------|-------- 5------ 6------ 7------|
E|-------------- 7------------ 8--|------------------------------ 1|
ClassicalGuitarTablature http://classicalguitartablature.blogspot.com/
E|--------------------------------|--------------------------------|
B| 1------------------------------|---- 3-------------- 3----------|
G| 2------------------------------|---- 3-------------- 3----------|
D|---- 3 3------ 3---- 3----------|---- 3-------------- 2----------|
A|-------------- 5----------------|-------- 4-- 0 3----------------|
E|------------------------ 4------| 3------------------------------|
ClassicalGuitarTablature http://classicalguitartablature.blogspot.com/
E| 1------------------------------|--------------------------------|
B| 1------------------------------|--------------------------------|
G| 0------------------------------|--------------------------------|
D|--------------------------------|--------------------------------|
A|--------------------------------|--------------------------------|
E| 1------------------------------|--------------------------------|
0 com

You And Me (BASIC)

Life House's tune fingerstyle chord melody guitar BASIC arrangement played in the key of C.

You And Me - Life House - BASIC ARRANGEMENT played in the key of C.
http://classicalguitartablature.blogspot.com/
E|------------ 1----------|------------------------|
B| 1------ 1-- 1---- 1----| 0------ 0 1------ 1----|
G| 0---- 0-- 0------ 2-- 2|------ 0-- 0------ 0-- 0|
D| 2 2------------ 3------|-- 0---------- 2--------|
A| 3-------------------- 2|------------ 3----------|
E|------------ 1----------|------------------------|
http://classicalguitartablature.blogspot.com/
E|------------------------|------------------------|
B|-------- 1---------- 0--| 1------ 1--------------|
G|------ 2-- 2------ 0----|------ 2-- 2------------|
D|-- 2---------- 0------ 0|-- 3--------------------|
A| 0---------- 2----------|------------------------|
E|------------------------| 1---------- 1----------|
http://classicalguitartablature.blogspot.com/
http://classicalguitartablature.blogspot.com/
E|------------------------|-------- 0-- 0----------|
B| 1-- 3-- 1-- 1---- 1----| 1-- 3------ 1-- 3-- 1--|
G| 0-- 0-- 0-- 2-- 2-- 2--| 0-- 0------ 0------ 0--|
D|-- 2-- 2-- 2-- 3------ 3| 0 0-- 0------ 2-- 2-- 2|
A| 3----------------------| 2---------- 3----------|
E|------------ 1----------|------------------------|
http://classicalguitartablature.blogspot.com/
E|------------------------|------------------------|
B| 1-- 3-- 1 1---- 3------|-------- 1--------------|
G| 2-- 2-- 2-- 0------ 0--| 2---- 2-- 2-------- 2--|
D| 2 2-- 2---- 0 0-- 0----|---- 3---------- 3------|
A| 0---------- 2----------|------------------------|
E|------------------------| 1---------- 1----------|
http://classicalguitartablature.blogspot.com/
E|------------------------|-------- 0-- 0----------|
B| 1-- 3-- 1-- 1---- 1----| 1-- 3------ 1-- 3-- 1--|
G| 0-- 0-- 0-- 2-- 2-- 2--| 0-- 0------ 0-- 0-- 0--|
D|-- 2-- 2-- 2-- 3------ 3| 0 0-- 0------ 2-- 2-- 2|
A| 3----------------------| 2---------- 3----------|
E|------------ 1----------|------------------------|
http://classicalguitartablature.blogspot.com/
E|------------------------|------------------------|
B| 1-- 3-- 1-- 1-- 3 1----| 1----------------------|
G| 2-- 2-- 2-- 0-- 0 0----| 2---- 2------------ 2--|
D| 2 2-- 2-- 2-- 0-- 0----| 3-- 3-- 3------ 3------|
A| 0---------- 2----------|------------------------|
E|------------------------| 1---------- 1----------|
http://classicalguitartablature.blogspot.com/
E|------------------ 3-- 3|------------------------|
B|-------- 1---- 1-- 1-- 1|-------- 1-- 8----------|
G|------ 2-- 2-- 2-- 2----| 0-- 0------ 5---- 5-- 5|
D|---- 3-------- 3--------|-- 2-- 2---- 7-- 7-- 7--|
A|------------------------| 3---------- 5----------|
E| 1---------- 1----------|------------------------|
http://classicalguitartablature.blogspot.com/
E|------------ 0----------|-------- 0-- 0----------|
B|10-- 8-- 8-- 1-- 3-- 1 1|---- 3-- 1-- 1---- 1----|
G| 9-- 9-- 9-- 0-- 0-- 0 2|---- 2---------- 0-- 0--|
D|1010----10 2---- 2-- 2--| 2 2-- 2-- 2-- 2------ 2|
A| 8---------- 3----------| 0---------- 3----------|
E|------------------------|------------------------|
http://classicalguitartablature.blogspot.com/
E|---- 0-- 0---------- 3 3|------------------------|
B| 1-- 3-- 1-- 3-- 1-- 1 1|-------- 1-- 8----------|
G| 2-- 2---------- 0------| 0-- 0------ 5---- 5-- 5|
D|-- 2-- 2------ 0--------|-- 2-- 2---- 7-- 7-- 7--|
A| 0---------- 2----------| 3---------- 5----------|
E|------------------------|------------------------|
http://classicalguitartablature.blogspot.com/
E|------------ 0----------|-------- 0-- 0----------|
B|10-- 8-- 8-- 1-- 3-- 1 1|---- 3-- 1-- 1---- 1----|
G| 9-- 9-- 9-- 0-- 0-- 0 2|---- 2---------- 0-- 0--|
D|1010----10 2---- 2-- 2--| 2 2-- 2-- 2-- 2------ 2|
A| 8---------- 3----------| 0---------- 3----------|
E|------------------------|------------------------|
http://classicalguitartablature.blogspot.com/
E|-------- 0-- 0----------|------------------------|
B| 1-- 3-- 1-- 0-- 3-- 1--| 1------ 1--------------|
G| 2-- 2---- 2---- 0------| 2---- 2-- 2-------- 2--|
D| 2 2-- 2-- 2-- 0-- 0----| 3-- 3---------- 3------|
A| 0---------- 2----------|------------------------|
E|------------------------| 1---------- 1----------|
http://classicalguitartablature.blogspot.com/
E|------------------------|------------------------|
B|------ 0-- 0------ 0 3--| 3-- 1------------------|
G|-- 0------ 0-- 0--------| 2------ 2------ 2-- 2--|
D|-- 0------ 0-- 0--------| 3 3-- 3-- 3-- 3-- 3----|
A|------------------------|------------------------|
E| 0---------- 0----------| 1---------- 1----------|
http://classicalguitartablature.blogspot.com/
E|---- 3-- 3-- 5-- 3------| 0----------------------|
B|---- 1-- 1-- 3-- 3-- 5--| 1------ 1------------ 6|
G|------ 0-- 0 4 4--------| 2---- 2-- 2------ 2-- 5|
D|-- 2-------------- 5----|---- 2---------- 2-- 2--|
A| 3----------------------| 0-------------------- 5|
E|------------ 3----------|------------ 0----------|
http://classicalguitartablature.blogspot.com/
E|------------------------|---------------------- 5|
B|---- 8-- 8-- 8----------| 1 3 3---------------- 0|
G|-- 5---- 5-- 5---- 5----| 0------ 0-------- 0-- 0|
D|-- 7 7---- 7---- 7------| 0-------- 0---- 0------|
A|------------ 5----------| 2---------- 2----------|
E|------------------------|---------------------- 0|
http://classicalguitartablature.blogspot.com/
E|-- 3-- 3-- 3------------|------------------------|
B|-- 0 0 0-- 0------ 0----| 1----------------------|
G|---- 0---- 0------ 0----|------ 1------------ 1--|
D|-- 0------------ 0------|---- 3---------- 3------|
A|------------------------|------------------------|
E|------------ 0----------| 1---------- 3----------|
http://classicalguitartablature.blogspot.com/
E|------------------ 3-- 3|------------------------|
B|---------------------- 1|-------- 1-- 8----------|
G|-------- 5---- 5--------| 0-- 0------ 5---- 5-- 5|
D|---- 3------------------|-- 2-- 2---- 7-- 7-- 7--|
A|------------------------| 3---------- 5----------|
E| 4---------- 6----------|------------------------|
http://classicalguitartablature.blogspot.com/
E|------------ 0----------|-------- 0-- 0----------|
B|10-- 8-- 8-- 1-- 3-- 1 1|---- 3-- 1-- 1---- 1----|
G| 9-- 9-- 9-- 0-- 0-- 0 2|---- 2---------- 0-- 0--|
D|1010----10 2---- 2-- 2--| 2 2-- 2-- 2-- 2------ 2|
A| 8---------- 3----------| 0---------- 3----------|
E|------------------------|------------------------|
http://classicalguitartablature.blogspot.com/
E|---- 0-- 0---------- 3 3|------------------------|
B| 1-- 3-- 1-- 3-- 1-- 1 1|-------- 1-- 8----------|
G| 2-- 2---------- 0------| 0-- 0------ 5---- 5-- 5|
D|-- 2-- 2------ 0--------|-- 2-- 2---- 7-- 7-- 7--|
A| 0---------- 2----------| 3---------- 5----------|
E|------------------------|------------------------|
http://classicalguitartablature.blogspot.com/
E|------------ 0----------|-------- 0-- 0----------|
B|10-- 8-- 8-- 1-- 3 1-- 1|---- 3-- 1-- 1---- 1----|
G| 9-- 9-- 9-- 0-- 0 0-- 2|---- 2---------- 0-- 0--|
D|1010----10 2---- 2-- 2--| 2 2-- 2-- 2-- 2------ 2|
A| 8---------- 3----------| 0---------- 3----------|
E|------------------------|------------------------|
http://classicalguitartablature.blogspot.com/
E|-------- 0-- 0----------|------------------------|
B| 1-- 3-- 1-- 0-- 3-- 1--| 1------ 1--------------|
G| 2-- 2---- 2---- 0------| 2---- 2-- 2-------- 2--|
D| 2 2-- 2-- 2-- 0-- 0----| 3-- 3---------- 3------|
A| 0---------- 2----------|------------------------|
E|------------------------| 1---------- 1----------|
http://classicalguitartablature.blogspot.com/
E|------------------------|------------------------|
B|------------------------| 1-- 3-- 1-- 1----------|
G|-------- 2--------------| 0-- 0-- 0-- 2---- 2----|
D|---- 3------------------| 2-- 2-- 2-- 3-- 3------|
A|------------------------| 3----------------------|
E| 1---------- 1----------|------------ 1----------|
http://classicalguitartablature.blogspot.com/
E|-------- 0-- 0----------|------------------------|
B| 1-- 3---------- 3-- 1--| 1-- 3 1-- 1-- 3--------|
G| 0---------- 0----------| 2-- 2 2-- 0-------- 0--|
D| 0----------------------| 2-- 2-- 2-- 0----------|
A| 2---------- 3----------| 0---------- 2----------|
E|------------------------|------------------------|
http://classicalguitartablature.blogspot.com/
E|------------------------|------------------------|
B|------------------------|------------------------|
G|-- 2--------------------|------------------------|
D| 3----------------------|------------------------|
A|------------------------|------------------------|
E| 1----------------------|------------------------|
http://classicalguitartablature.blogspot.com/
0 com

A Little Respect (BASIC)

Erasure's tune fingerstyle chord melody guitar BASIC arrangement played in the key of C.

A Little Respect - Erasure - BASIC ARRANGEMENT played in the key of C.
http://classicalguitartablature.blogspot.com/
E| 0-- 0------ 0-- 1---- 1---- 1--| 0---- 0---- 0 1---- 1------ 1--|
B| 1-- 1------ 1-- 1---- 1---- 1--| 1---- 1---- 1-- 1-- 1------ 1--|
G|--------------------------------| 0---- 0---- 0-- 2---- 2---- 2--|
D| 2------------------------------|--------------------------------|
A| 3 3-- 3-- 3 3-- 3-- 3 3-- 3 3--| 3-- 3 3-- 3 3-- 3 3-- 3-- 3 3--|
E|--------------------------------|--------------------------------|
http://classicalguitartablature.blogspot.com/
E| 0---- 0---- 0-- 1---- 1---- 1--| 0---------------------- 0-- 1--|
B| 1---- 1---- 1-- 1---- 1---- 1--| 1---------- 1-- 1-- 3 1--------|
G|--------------------------------| 0---------- 0-- 0-- 0----------|
D|--------------------------------|------------ 2-- 2-- 2----------|
A| 3-- 3 3-- 3 3-- 3-- 3 3---- 3--| 3------------------------------|
E|--------------------------------|--------------------------------|
http://classicalguitartablature.blogspot.com/
http://classicalguitartablature.blogspot.com/
E|---- 0--------------------------|-------- 0------ 0------ 0-- 3--|
B|------------ 1------------ 1----|------------ 3 1---- 3 1--------|
G|---------- 0---------- 0--------|--------------------------------|
D|------ 2------ 3-- 3-------- 3--| 2-- 2--------------------------|
A| 3-------------- 3--------------| 3-------------- 3--------------|
E|--------------------------------|--------------------------------|
http://classicalguitartablature.blogspot.com/
E|--------------------------------|---------------------------- 0--|
B|---- 3------ 0------------------|-------- 3-- 3------ 3----------|
G|---- 0------------ 2 0------ 0--|------ 0------------ 0----------|
D|------------------------ 0------|---- 0-------------- 0----------|
A|--------------------------------|--------------------------------|
E| 3------------ 3----------------| 3-------------- 3--------------|
http://classicalguitartablature.blogspot.com/
E|--------------------------------|------------ 0------------------|
B|---------- 0---------------- 0--|---- 0------ 0------ 3------ 3--|
G|------ 0---- 0------------------|---- 0-------------- 0------ 2--|
D|---- 0-------------- 0-- 0------|---- 0-------------- 0------ 3--|
A|--------------------------------|--------------------------------|
E| 0-------------- 0--------------| 0-------------- 0--------------|
http://classicalguitartablature.blogspot.com/
E|--------------------------------|-------------------- 1------ 0--|
B|-- 1---- 1---------------- 1----|------------ 1------------------|
G|------ 2---- 2-------- 2--------|---- 2------ 2------------------|
D|-------------------- 3------ 3--|---- 3------ 3------------------|
A|--------------------------------|--------------------------------|
E| 1-------------- 1--------------| 1-------------- 1--------------|
http://classicalguitartablature.blogspot.com/
E|--------------------------------|-------------------- 0----------|
B|---- 1--------------------------|------------ 1-------------- 3--|
G|---- 0---- 0------------ 0------|---- 0------ 0------------------|
D|------------------ 3 2------ 2--|--------------------------------|
A| 3------------ 3----------------| 3-------------- 3--------------|
E|--------------------------------|--------------------------------|
http://classicalguitartablature.blogspot.com/
E|--------------------------------|--------------------------------|
B|---- 0--------------------------|---------------- 1-- 1-- 1 3----|
G|------------------------ 0------|-------- 0---- 2-- 2------------|
D|------------ 3---- 2 0------ 0--|---- 0------ 0------------------|
A|--------------------------------|--------------------------------|
E| 3-------------- 3--------------| 3-------------- 3--------------|
http://classicalguitartablature.blogspot.com/
E|--------------------------------| 3-- 0--------------------------|
B| 1-------------- 1---- 1-- 1 1--| 1---- 3-- 1------------ 1------|
G| 2---- 2---- 2------ 2----------| 2-- 2 2-- 2---------- 2-- 2----|
D|---- 3---- 3--------------------| 2---- 2-- 2-------- 2----------|
A|--------------------------------| 0-------------- 0--------------|
E| 1-------------- 1--------------|--------------------------------|
http://classicalguitartablature.blogspot.com/
E|--------------------------------| 0-- 0 0-- 0 1-- 0--------------|
B| 1-- 1 1 1-- 1-- 0 0-- 0-- 0 0--| 0-- 0 0-- 0 0-- 0-- 3 3-- 1 3--|
G| 0-- 0 0 0-- 0-- 0 0-- 0-- 0 0--| 0-- 0 0-- 0 0-- 0-- 0 0-- 0 0--|
D| 0-- 0 0 0-- 0-- 0 0-- 0-- 0 0--|-------------------- 0 0-- 0 0--|
A|--------------------------------|--------------------------------|
E| 3-------------- 3--------------| 3-------------- 3--------------|
http://classicalguitartablature.blogspot.com/
E|--------------------------------|--------------------------------|
B| 1------------------------------|------------ 1------ 3------ 0--|
G|---- 0---------------- 0---- 0--|---- 0------ 0-------------- 0--|
D|------------ 3------ 2---- 2----|---- 2------ 2-------------- 0--|
A| 3-------------- 3--------------| 3-------------- 3--------------|
E|--------------------------------|--------------------------------|
http://classicalguitartablature.blogspot.com/
E|--------------------------------|---------------------------- 3--|
B|--------------------------------|---------------------------- 1--|
G|---- 0-------------- 0------ 0--|---- 0------ 2------ 0------ 2--|
D|------------ 3---- 2------ 2----|--------------------------------|
A|--------------------------------|--------------------------------|
E| 0-------------- 0--------------| 0-------------- 0--------------|
http://classicalguitartablature.blogspot.com/
E|--------------------------------|---------------- 3-- 0 3-- 3 3--|
B|---------- 1-------------- 1----|---------- 1---- 1-- 1 1-- 1 1--|
G|------ 2---- 2-------- 2---- 2--|------ 2---- 2-- 2-- 2 2-- 2 2--|
D|---- 3-------------- 3----------|---- 3--------------------------|
A|--------------------------------|--------------------------------|
E| 1-------------- 1--------------| 1-------------- 1--------------|
http://classicalguitartablature.blogspot.com/
E| 5-- 3--------------------------|-------------------- 8------ 8--|
B| 0-- 0------ 0------------ 0----|10-- 8------10-------------- 5--|
G| 0-------- 0---------- 0---- 0--| 0-- 0------ 0-------------- 5--|
D|------ 0------------ 0----------| 9-- 9------ 9------------------|
A|--------------------------------|10--------------10--------------|
E| 0-------------- 0--------------|--------------------------------|
http://classicalguitartablature.blogspot.com/
E|--------------------------------|--------------------------------|
B|---------- 5---- 6-------- 6----| 5-- 5 5-- 5 5-- 6 6 6-- 6 6----|
G|------ 5-------- 5---- 5--------| 5-- 5 5-- 5 5-- 5 5 5-- 5 5----|
D|-- 5-------- 5------ 5------ 5--| 5-- 5 5-- 5 5-- 5 5 5-- 5 5----|
A|--------------------------------|--------------------------------|
E| 8-------------- 8--------------| 8-------------- 8--------------|
http://classicalguitartablature.blogspot.com/
E| 0------------------------------|--------------------------------|
B| 3------------------------------|--------------------------------|
G| 0------------------------------|--------------------------------|
D|--------------------------------|--------------------------------|
A| 3------------------------------|--------------------------------|
E|--------------------------------|--------------------------------|
http://classicalguitartablature.blogspot.com/