To celebrate the anniversary, I am giving you (finally...) : iPhone LickByNeck !!!!!!

Sesame Street

Popular children tune played in the key of F.

http://classicalguitartablature.blogspot.com/
Sesame Street played in the key of F.

ClassicalGuitarTablature http://classicalguitartablature.blogspot.com/
E|--------------------------------|--------------------------------|
B|10----10------ 8------ 8------10|------10------ 8----10 8--------|
G|10----10------10------10------10|------10------10----1010--------|
D|10------10---- 8------ 8------10|------10------ 8---- 8 8--------|
A| 8------ 8-- 0 8------ 8---- 0 8|------ 8-------------- 8--------|
E|--------------------------------|-------------- 8---- 8------10--|
ClassicalGuitarTablature http://classicalguitartablature.blogspot.com/
E|------ 1------------------------|--------------------------------|
B|------ 1------------ 3------ 3--|---------------------- 3--------|
G|-------------------- 5-- 5-- 3--|------ 3------ 3---- 5 3--------|
D|---- 3-------------- 3------ 3--|---- 3-------- 3----------------|
A|--------------------------------|-------------- 5----------------|
E| 1-------------- 5---------- 6--|------------------------------ 1|
ClassicalGuitarTablature http://classicalguitartablature.blogspot.com/
E|------ 1------------------------|--------------------------------|
B|------ 1------------ 3----------|--------------------------------|
G|-------------------- 5------ 3--|-------- 3-------------- 3------|
D|---- 3-------------- 3------ 3--|---- 3-------------- 3----------|
A|--------------------------------|---------------- 5--------------|
E|-------------- 5------------ 6--|--------------------------------|
ClassicalGuitarTablature http://classicalguitartablature.blogspot.com/
E|-------- 1----------------------|--------------------------------|
B|-------- 1-- 1------ 3------ 3--|-------------------- 3----------|
G|-------------------- 5------ 3--|-------------- 5----------------|
D|---- 3-------------- 3------ 3--|---- 3-------- 3----------------|
A|--------------------------------|------ 3---- 3 5----------------|
E| 1------------ 5------------ 6--|--------------------------------|
ClassicalGuitarTablature http://classicalguitartablature.blogspot.com/
E|--------------------------------|--------------------------------|
B| 5---------- 6---------- 8------|---- 5-------- 6------ 8------ 9|
G| 3---------- 3---------- 5------|---- 3-------- 3------ 5--------|
D| 5---------- 6---------- 8------|---- 5-------- 6------ 8------ 6|
A| 3---------- 5---------- 7------|---- 3-------- 5-------- 7------|
E|--------------------------------|------------------------------ 6|
ClassicalGuitarTablature http://classicalguitartablature.blogspot.com/
E|--------------------------------|--------------------------------|
B|---- 9 8------ 6----------------|------------ 3-- 4--------------|
G| 7-- 7 7------ 7---- 7------ 5--|-------- 5------ 6---- 7--------|
D|------ 6------ 7---- 7------ 5--|-------- 4---- 5-------- 6---- 3|
A|--------------------------------|-------- 5------ 6------ 7------|
E|-------------- 7------------ 8--|------------------------------ 1|
ClassicalGuitarTablature http://classicalguitartablature.blogspot.com/
E|--------------------------------|--------------------------------|
B| 1------------------------------|---- 3-------------- 3----------|
G| 2------------------------------|---- 3-------------- 3----------|
D|---- 3 3------ 3---- 3----------|---- 3-------------- 2----------|
A|-------------- 5----------------|-------- 4-- 0 3----------------|
E|------------------------ 4------| 3------------------------------|
ClassicalGuitarTablature http://classicalguitartablature.blogspot.com/
E|------ 1------------------------|--------------------------------|
B|------ 1------------ 3------ 3--|---------------------- 3--------|
G|-------------------- 5-- 5-- 3--|------ 3------ 3---- 5 3--------|
D|---- 3-------------- 3------ 3--|---- 3-------- 3----------------|
A|--------------------------------|-------------- 5----------------|
E| 1-------------- 5---------- 6--|------------------------------ 1|
ClassicalGuitarTablature http://classicalguitartablature.blogspot.com/
E|------ 1------------------------|--------------------------------|
B|------ 1------------ 3----------|--------------------------------|
G|-------------------- 5------ 3--|-------- 3-------------- 3------|
D|---- 3-------------- 3------ 3--|---- 3-------------- 3----------|
A|--------------------------------|---------------- 5--------------|
E|-------------- 5------------ 6--|--------------------------------|
ClassicalGuitarTablature http://classicalguitartablature.blogspot.com/
E|-------- 1----------------------|--------------------------------|
B|-------- 1-- 1------ 3------ 3--|-------------------- 3----------|
G|-------------------- 5------ 3--|-------------- 5----------------|
D|---- 3-------------- 3------ 3--|---- 3-------- 3----------------|
A|--------------------------------|------ 3---- 3 5----------------|
E| 1------------ 5------------ 6--|--------------------------------|
ClassicalGuitarTablature http://classicalguitartablature.blogspot.com/
E|--------------------------------|--------------------------------|
B| 5---------- 6---------- 8------|---- 5-------- 6------ 8------ 9|
G| 3---------- 3---------- 5------|---- 3-------- 3------ 5--------|
D| 5---------- 6---------- 8------|---- 5-------- 6------ 8------ 6|
A| 3---------- 5---------- 7------|---- 3-------- 5-------- 7------|
E|--------------------------------|------------------------------ 6|
ClassicalGuitarTablature http://classicalguitartablature.blogspot.com/
E|--------------------------------|--------------------------------|
B|---- 9 8------ 6----------------|------------ 3-- 4--------------|
G| 7-- 7 7------ 7---- 7------ 5--|-------- 5------ 6---- 7--------|
D|------ 6------ 7---- 7------ 5--|-------- 4---- 5-------- 6---- 3|
A|--------------------------------|-------- 5------ 6------ 7------|
E|-------------- 7------------ 8--|------------------------------ 1|
ClassicalGuitarTablature http://classicalguitartablature.blogspot.com/
E|--------------------------------|--------------------------------|
B| 1------------------------------|---- 3-------------- 3----------|
G| 2------------------------------|---- 3-------------- 3----------|
D|---- 3 3------ 3---- 3----------|---- 3-------------- 2----------|
A|-------------- 5----------------|-------- 4-- 0 3----------------|
E|------------------------ 4------| 3------------------------------|
ClassicalGuitarTablature http://classicalguitartablature.blogspot.com/
E|--------------------------------|--------------------------------|
B|-------------------- 2----------|------ 2---- 3-------- 3--------|
G|-------------- 2-------- 2---- 4|---- 4 4---- 4-------- 4--------|
D|-------- 2-- 2---------------- 2|-------------------- 2----------|
A| 0-- 0-- 0-- 0 0---- 0----------| 0---- 0---- 0------------------|
E|--------------------------------|--------------------------------|
ClassicalGuitarTablature http://classicalguitartablature.blogspot.com/
E|--------------------------------|--------------------------------|
B|-------------------- 2----------|------ 2---- 3---------------- 2|
G|-------------- 2----------------| 4---- 2---- 2---------- 2-- 4 2|
D|---- 2-- 2-- 2---------- 2------| 2-- 2-------------- 2-------- 2|
A| 0---- 0 0-- 0-- 0-- 0----------| 0------ 0-- 0-------------- 0 0|
E|--------------------------------|--------------------------------|
ClassicalGuitarTablature http://classicalguitartablature.blogspot.com/
E|--------------------------------|--------------------------------|
B|-------------------- 5----------| 5------ 5------ 5------ 5------|
G|---- 4 2------ 4---- 7----------| 5------ 5------ 3------ 3------|
D|---- 2 2------ 2---- 6------ 6--| 5------ 4------ 3------ 5------|
A|---- 0 0---- 0 0---- 7----------|-------- 5-------------- 3------|
E|--------------------------------| 5-------------- 3--------------|
ClassicalGuitarTablature http://classicalguitartablature.blogspot.com/
E|------ 1------------------------|--------------------------------|
B|------ 1------------ 3------ 3--|---------------------- 3--------|
G|-------------------- 5-- 5-- 3--|------ 3------ 3---- 5 3--------|
D|---- 3-------------- 3------ 3--|---- 3-------- 3----------------|
A|--------------------------------|-------------- 5----------------|
E| 1-------------- 5---------- 6--|------------------------------ 1|
ClassicalGuitarTablature http://classicalguitartablature.blogspot.com/
E|------ 1------------------------|--------------------------------|
B|------ 1------------ 3----------|--------------------------------|
G|-------------------- 5------ 3--|-------- 3-------------- 3------|
D|---- 3-------------- 3------ 3--|---- 3-------------- 3----------|
A|--------------------------------|---------------- 5--------------|
E|-------------- 5------------ 6--|--------------------------------|
ClassicalGuitarTablature http://classicalguitartablature.blogspot.com/
E|-------- 1----------------------|--------------------------------|
B|-------- 1-- 1------ 3------ 3--|-------------------- 3----------|
G|-------------------- 5------ 3--|-------------- 5----------------|
D|---- 3-------------- 3------ 3--|---- 3-------- 3----------------|
A|--------------------------------|------ 3---- 3 5----------------|
E| 1------------ 5------------ 6--|--------------------------------|
ClassicalGuitarTablature http://classicalguitartablature.blogspot.com/
E|--------------------------------|--------------------------------|
B| 5---------- 6---------- 8------|---- 5-------- 6------ 8------ 9|
G| 3---------- 3---------- 5------|---- 3-------- 3------ 5--------|
D| 5---------- 6---------- 8------|---- 5-------- 6------ 8------ 6|
A| 3---------- 5---------- 7------|---- 3-------- 5-------- 7------|
E|--------------------------------|------------------------------ 6|
ClassicalGuitarTablature http://classicalguitartablature.blogspot.com/
E|--------------------------------|--------------------------------|
B|---- 9 8------ 6----------------|------------ 3-- 4--------------|
G| 7-- 7 7------ 7---- 7------ 5--|-------- 5------ 6---- 7--------|
D|------ 6------ 7---- 7------ 5--|-------- 4---- 5-------- 6---- 3|
A|--------------------------------|-------- 5------ 6------ 7------|
E|-------------- 7------------ 8--|------------------------------ 1|
ClassicalGuitarTablature http://classicalguitartablature.blogspot.com/
E|--------------------------------|--------------------------------|
B| 1------------------------------|---- 3-------------- 3----------|
G| 2------------------------------|---- 3-------------- 3----------|
D|---- 3 3------ 3---- 3----------|---- 3-------------- 2----------|
A|-------------- 5----------------|-------- 4-- 0 3----------------|
E|------------------------ 4------| 3------------------------------|
ClassicalGuitarTablature http://classicalguitartablature.blogspot.com/
E| 1------------------------------|--------------------------------|
B| 1------------------------------|--------------------------------|
G| 0------------------------------|--------------------------------|
D|--------------------------------|--------------------------------|
A|--------------------------------|--------------------------------|
E| 1------------------------------|--------------------------------|

0 ความคิดเห็น:

แสดงความคิดเห็น