To celebrate the anniversary, I am giving you (finally...) : iPhone LickByNeck !!!!!!

Porque Te Vas - Cria Cuervos (BASIC)

Jeanette's tune fingerstyle chord melody guitar BASIC arrangement played in the key of Am.
Porque te vas-Cria Cuervos-Jeanette-BASIC Arrangement played in the key of Am
http://classicalguitartablature.blogspot.com/
E|--------------------------------|--------------------------------|
B|--------------------------------|--------------------------------|
G|------ 2------ 2----------------|------ 2------ 2----------------|
D|---- 2------ 2------ 2----------|---- 2------ 2------ 2----------|
A| 0-------------- 0-- 0----------| 0-------------- 0-- 0----------|
E|-------- 0-------------- 0-- 3--|-------- 0------------ 0---- 3--|
http://classicalguitartablature.blogspot.com/
E| 0 0---- 0-- 0-- 0------ 0-- 1--|---------------------- 3--------|
B| 1-- 1-- 1-- 1-- 1-- 1-- 1-- 1--| 3------------------ 3 3---- 3--|
G| 2-- 2-- 2-- 2-- 2-- 2-- 2-- 2--|------ 5------ 5---- 5 5---- 5--|
D|-------------------- 2----------|---- 3------ 3------ 3------ 3--|
A| 0-------------- 0--------------| 5-------------- 5--------------|
E|-------- 0-------------- 0------|-------- 5-------------- 5------|
http://classicalguitartablature.blogspot.com/
http://classicalguitartablature.blogspot.com/
E| 0------------------ 0 1-- 0----|--------------------------------|
B| 1---------------- 1-- 1-- 1----| 3-- 3-- 3-- 3-- 3-- 0------ 3--|
G|------ 2------ 2-- 2-- 2-- 2----| 5-- 5-- 2-- 2-- 2------ 5------|
D|---- 2------ 2------------------| 3-- 3-- 3-- 3-- 3------ 3------|
A| 0-------------- 0--------------| 5------ 2-------------- 5------|
E|-------- 0-------------- 0------|---------------- 1--------------|
http://classicalguitartablature.blogspot.com/
E| 0-------------------------- 0--|--------------------------------|
B| 1------------------ 0 3--------|--------------------------------|
G|------ 2------ 2---- 1 1------ 2|------ 2------ 2----------------|
D|---- 2------ 2------ 0 0--------|---- 2------ 2---- 2------------|
A| 0---------------------- 2------| 0-------------- 0-- 0----------|
E|-------- 0------ 0--------------|-------- 0-------------- 0-- 3--|
http://classicalguitartablature.blogspot.com/
E| 0 0---- 0-- 0-- 0------ 0-- 1--|---------------------- 3--------|
B| 1-- 1-- 1-- 1-- 1-- 1-- 1-- 1--| 3------------------ 3 3---- 3--|
G| 2-- 2-- 2-- 2-- 2-- 2-- 2-- 2--|------ 5------ 5---- 5 5---- 5--|
D|-------------------- 2----------|---- 3------ 3------ 3------ 3--|
A| 0-------------- 0--------------| 5-------------- 5--------------|
E|-------- 0-------------- 0------|-------- 5-------------- 5------|
http://classicalguitartablature.blogspot.com/
E| 0------------------ 0 1-- 0----|--------------------------------|
B| 1---------------- 1-- 1-- 1----| 3-- 3-- 3-- 3-- 3-- 0------ 3--|
G|------ 2------ 2-- 2-- 2-- 2----| 5-- 5-- 2-- 2-- 2------ 5------|
D|---- 2------ 2------------------| 3-- 3-- 3-- 3-- 3------ 3------|
A| 0-------------- 0--------------| 5------ 2-------------- 5------|
E|-------- 0-------------- 0------|---------------- 1--------------|
http://classicalguitartablature.blogspot.com/
E| 0-------------------------- 0--|--------------------------------|
B| 1------------------ 0 3--------|--------------------------------|
G|------ 2------ 2---- 1 1------ 2|------ 2------ 2----------------|
D|---- 2------ 2------ 0 0--------|---- 2------ 2---- 2------------|
A| 0---------------------- 2------| 0-------------- 0-- 0----------|
E|-------- 0------ 0--------------|-------- 0-------------- 0-- 3--|
http://classicalguitartablature.blogspot.com/
E|--------------------------------| 8-- 5------------ 5-- 7---- 8--|
B|10101010101010--10-- 910----12--| 5-- 5-------------- 5-- 5------|
G| 9 9 9 9 9 9------------ 9------| 5---- 5------ 5---- 5-- 5-- 5--|
D|1010101010--------------10------|------------ 5------------------|
A| 8-------------- 8--------------|-------- 7-------------- 7------|
E|-------- 8-------------- 8------| 5-------------- 5--------------|
http://classicalguitartablature.blogspot.com/
E|---------------------- 3---- 5 0|--------------------------------|
B| 5---------------- 5-- 5------ 3|--------------------------------|
G|------ 5---- 5---- 5-- 5------ 0|------ 0---- 0------ 0-------- 0|
D|---- 5------ 5------------------|-- 2------ 2------ 2-------- 2--|
A| 3------------ 3----------------| 0------------ 0----------------|
E|-------- 3------------ 3--------|-------- 0-------------- 0------|
http://classicalguitartablature.blogspot.com/
E|--------------------------------| 8-- 5------------ 5-- 7---- 8 0|
B|10101010101010--10-- 910----12--| 5-- 5-------------- 5-- 5------|
G| 9 9 9 9 9 9------------ 9------| 5---- 5------ 5---- 5-- 5-- 5--|
D|1010101010--------------10------|------------ 5------------------|
A| 8-------------- 8--------------|-------- 7-------------- 7------|
E|-------- 8-------------- 8------| 5-------------- 5--------------|
http://classicalguitartablature.blogspot.com/
E|---------------------------- 0--|---------------------------- 0--|
B|------------------------ 3------|------------------------ 3------|
G|------ 0---- 0------ 4-------- 2|------ 2---- 2------ 4-------- 2|
D|---- 2------ 2------ 2----------|---- 2------ 2------ 2----------|
A| 3------------------------------| 0------------------------------|
E|-------- 3------ 4------ 4------|-------- 0------ 4------ 4------|
http://classicalguitartablature.blogspot.com/
E|---------------------------- 0 5|--------------------------------|
B|------------------------ 3---- 5|--------------------------------|
G|------ 2---- 2------ 4-------- 5|------ 5------ 5------ 5------ 5|
D|---- 2------ 2------ 2----------|---- 7------ 7------ 7------ 7--|
A| 0------------------------------|-------- 7------------ 7--------|
E|-------- 0------ 4------ 4------| 5-------------- 5--------------|
http://classicalguitartablature.blogspot.com/
E|--------------------------------|--------------------------------|
B|--------------------------------|--------------------------------|
G|---- 2------ 2---------------- 2|--------------------------------|
D|---- 2------ 2------ 2-------- 2|--------------------------------|
A| 0-------------- 0-- 0----------| 0------------------------------|
E|-------- 0------------ 0---- 3--|--------------------------------|
http://classicalguitartablature.blogspot.com/

0 ความคิดเห็น:

แสดงความคิดเห็น