To celebrate the anniversary, I am giving you (finally...) : iPhone LickByNeck !!!!!!

The Sign (BASIC)

Ace Of Base's tune fingerstyle chord melody guitar BASIC arrangement played in the key of G.
The Sign-Ace Of Base-BASIC Arrangement played in the key of G
http://classicalguitartablature.blogspot.com/
E| 3------ 3-- 6------ 3---- 3----| 3------ 3---- 6---- 3---- 3----|
B|-- 6------ 6------------ 6------|---- 6---- 6------------ 6------|
G|--------------------------------|--------------------------------|
D|--------------------------------|--------------------------------|
A|------------------------ 3-- 5--|------------------------ 3-- 5--|
E| 3---- 3---- 6------ 6----------| 3---- 3---- 6------ 6----------|
http://classicalguitartablature.blogspot.com/
E| 3------ 3---- 6---- 3---- 3----|--------------------------------|
B|---- 6---- 6------------ 6------| 4-------------- 3--------------|
G|--------------------------------|--------------------------------|
D|--------------------------------|--------------------------------|
A|------------------------ 3-- 5--|--------------------------------|
E| 3---- 3---- 6------ 6----------| 3---- 3---- 6------ 6-- 5-- 1--|
http://classicalguitartablature.blogspot.com/
http://classicalguitartablature.blogspot.com/
E|--------------------------------|-------------- 2-- 3-------- 3--|
B| 1-------------- 3--------------| 0------ 0 0 0 0-- 0---- 0------|
G| 0-------------- 2--------------| 0------ 0 0 0-------- 0--------|
D| 2-------------- 4--------------|---- 0--------------------------|
A| 3-------------- 5--------------|--------------------------------|
E|--------------------------------| 3-------------- 0--------------|
http://classicalguitartablature.blogspot.com/
E| 3-- 3-- 5-- 3 2----------------|-------------- 2-- 3-------- 3--|
B| 5-- 5-- 5-- 5 3-- 0---- 3-- 1 0|-------- 0-- 0---- 0------------|
G| 5-- 5-- 5-- 5---- 2------------|---------- 2------------ 0------|
D|---------------------- 4--------|---- 0---------------- 0--------|
A| 3-------------- 5--------------|--------------------------------|
E|--------------------------------| 3-------------- 0--------------|
http://classicalguitartablature.blogspot.com/
E| 7-------------- 8-- 7------ 7--|-------------- 2-- 3-------- 3 3|
B| 8------10------ 5-- 5------ 0--|------ 0---- 0---------- 0------|
G|---- 9---------- 5-- 5----------|------ 0-------------- 0--------|
D|--------------------------------|---- 0--------------------------|
A|---------------- 5--------------|--------------------------------|
E| 8---------- 8------------------| 3-------------- 0--------------|
http://classicalguitartablature.blogspot.com/
E|-------- 0----------------------|---------------- 2-- 3----------|
B| 1-- 1------ 1-- 0---------- 3--|------ 0---- 3-- 1-- 1----------|
G|-- 0------------ 2-- 2----------|------ 0-------- 0---------- 7--|
D|---------------- 4------ 4------|---- 0--------------------------|
A| 3-------------- 5--------------|---------------- 0--------------|
E|--------------------------------| 3------------------------------|
http://classicalguitartablature.blogspot.com/
E|------------ 7-- 5--------------| 7---- 3---- 5 3------ 3--------|
B|------------------------ 8-- 7--| 3---- 3------------ 0------ 3--|
G|-------- 7-------- 7------------|---- 4------------ 0------------|
D|---- 7--------------------------|--------------------------------|
A| 5-------------- 5--------------|--------------------------------|
E|--------------------------------| 3-------------- 0--------------|
http://classicalguitartablature.blogspot.com/
E|---- 3-- 3-- 5 7-- 5------ 5-- 3|-------- 7 5 3-- 5---- 3--------|
B| 3-- 5-- 5---- 5-- 5---- 8---- 3|---------- 3 3-------- 0--------|
G| 5-- 5-- 5---- 5-- 5---------- 4|---------- 4 4-- 0---- 0---- 0--|
D|--------------------------------|---- 5--------------------------|
A| 3-------------- 5--------------|--------------------------------|
E|--------------------------------| 3-------------- 0--------------|
http://classicalguitartablature.blogspot.com/
E| 3 3-- 3-- 7---- 7------ 5------| 7------ 3-- 3 5-- 3------------|
B| 5 5-- 5---------------- 5------| 3-------------------------- 3--|
G| 5 5-- 5-------- 5-- 5------ 5--|-- 4-- 4------------ 0 0--------|
D|--------------------------------|---- 5-------------- 0----------|
A| 3-------------- 5--------------|--------------------------------|
E|--------------------------------| 3-------------- 0--------------|
http://classicalguitartablature.blogspot.com/
E|---- 3-- 3 5 7------ 5------ 5 3|---- 3 3 3 3 3-- 3-- 5 7---- 3--|
B| 5-- 5-- 5---------- 5-- 8------|---------------- 0--------------|
G| 5-- 5-------------- 5----------|---------------- 0--------------|
D|--------------------------------|-- 5----------------------------|
A| 3-------------- 5--------------|--------------------------------|
E|--------------------------------| 3-------------- 0--------------|
http://classicalguitartablature.blogspot.com/
E| 3 3 3 3---- 5-- 7---------- 5--|---- 3---------- 7-- 5-------- 5|
B| 5-------------- 7------ 7-- 5--|------------ 3-- 5------ 8-- 5--|
G| 5-------------------- 7---- 5--|-------- 5------ 5--------------|
D|-------------------- 7----------|--------------------------------|
A| 3-------------- 5--------------| 3-------------- 5--------------|
E|--------------------------------|--------------------------------|
http://classicalguitartablature.blogspot.com/
E|------ 3------ 6---- 3---- 3----| 3------ 3---- 6---- 3---- 3----|
B|-------------- 6-------- 6------|---- 6---- 6------------ 6------|
G|--------------------------------|--------------------------------|
D|--------------------------------|--------------------------------|
A|------------------------ 3-- 5--|------------------------ 3-- 5--|
E| 3---- 3---- 6------ 6----------| 3---- 3---- 6------ 6----------|
http://classicalguitartablature.blogspot.com/
E| 3------ 3---- 6---- 3---- 3----| 3------ 3----------------------|
B|---- 6---- 6------------ 6------|---- 6---- 6-- 4-------- 3------|
G|--------------------------------|--------------------------------|
D|--------------------------------|--------------------------------|
A|------------------------ 3-- 5--|--------------------------------|
E| 3---- 3---- 6------ 6----------| 3---- 3---- 6------ 6-- 5-- 1--|
http://classicalguitartablature.blogspot.com/
E|------------------------------10|------ 7----------------------12|
B| 1-------------- 3------------ 8|---- 8----10 8---------- 8 8-- 8|
G| 0-------------- 2--------------|-- 7------------------ 7------ 9|
D| 2-------------- 4--------------|-------------------- 9----------|
A| 3-------------- 5------------10|---------------- 7--------------|
E|--------------------------------|--------------------------------|
http://classicalguitartablature.blogspot.com/
E|---- 8 8---------------- 7-- 8 7|-- 5 3 3-- 3 3 3---- 7------ 3--|
B|---- 8-- 812--10----10----------| 3 3 3---- 3------------ 3------|
G|---- 9-- 9---------- 7----------| 4 4 4--------------------------|
D|-------------------- 7----------|--------------------------------|
A|--------------------------------|--------------------------------|
E| 8--------------10--------------| 3-------------- 0--------------|
http://classicalguitartablature.blogspot.com/
E| 8---- 7------------------------| 7---- 3---- 5 3------ 3--------|
B| 5---- 5---- 8----------10-- 8--| 3---- 3------------ 0------ 3--|
G| 5---- 5------------ 7----------|---- 4------------ 0------------|
D|--------------------------------|--------------------------------|
A|--------------------------------|--------------------------------|
E| 8--------------10--------------| 3-------------- 0--------------|
http://classicalguitartablature.blogspot.com/
E|---- 3-- 3-- 5 7-- 5------ 5-- 3|-------- 7 5 3-- 5---- 3--------|
B| 3-- 5-- 5---- 5-- 5---- 8---- 3|---------- 3 3-------- 0--------|
G| 5-- 5-- 5---- 5-- 5---------- 4|---------- 4 4-- 0---- 0---- 0--|
D|--------------------------------|---- 5--------------------------|
A| 3-------------- 5--------------|--------------------------------|
E|--------------------------------| 3-------------- 0--------------|
http://classicalguitartablature.blogspot.com/
E| 3 3-- 3-- 7---- 7------ 5------| 7------ 3-- 3 5-- 3------------|
B| 5 5-- 5---------------- 5------| 3-------------------------- 3--|
G| 5 5-- 5-------- 5-- 5------ 5--|-- 4-- 4------------ 0 0--------|
D|--------------------------------|---- 5-------------- 0----------|
A| 3-------------- 5--------------|--------------------------------|
E|--------------------------------| 3-------------- 0--------------|
http://classicalguitartablature.blogspot.com/
E|---- 3-- 3 5 7------ 5------ 5 3|---- 3 3 3 3 3-- 3-- 5 7---- 3--|
B| 5-- 5-- 5---------- 5-- 8------|---------------- 0--------------|
G| 5-- 5-------------- 5----------|---------------- 0--------------|
D|--------------------------------|-- 5----------------------------|
A| 3-------------- 5--------------|--------------------------------|
E|--------------------------------| 3-------------- 0--------------|
http://classicalguitartablature.blogspot.com/
E| 3 3 3 3---- 5-- 7---------- 5--|-- 3----------------------------|
B| 5-------------- 7------ 7-- 0--|---- 0 0------ 0---- 1 0--------|
G| 5-------------------- 7---- 0--|------ 0---- 0 0---- 0 0--------|
D|-------------------- 7----------|---------- 0-------- 0 0---- 0--|
A| 3-------------- 5--------------|--------------------------------|
E|--------------------------------| 3------------ 0----------------|
http://classicalguitartablature.blogspot.com/
E|--------------------------------|--------------------------------|
B| 0---- 0---- 1 0------ 0--------|-------- 0------ 0---- 1 0------|
G| 0-- 0-------- 2---- 2----------|---- 0---------- 0---- 0 0------|
D|-- 2------------ 4 4------------|---- 0---------- 2---- 2 2------|
A| 3-------------- 5---------- 5--|--------------------------------|
E|--------------------------------| 3---------- 3-- 0---------- 0--|
http://classicalguitartablature.blogspot.com/
E|--------------------------------|--------------------------------|
B| 0------ 0-- 1-- 0------ 0------|-------- 0------ 0---- 1 0------|
G| 0------ 0-- 0-------- 2---- 5--|---- 0---------- 0---- 0 0------|
D| 2------ 2-- 2------ 4----------|---- 0---------- 2---- 2 2------|
A| 3-------------- 5--------------|--------------------------------|
E|--------------------------------| 3---------- 3-- 0---------- 0--|
http://classicalguitartablature.blogspot.com/
E|--------------------------------|--------------------------------|
B| 0---- 0---- 1 0------ 0--------|------ 0-------- 0---- 1 0-- 3--|
G| 0-- 0-------- 2---- 2----------|------ 0-------------- 0 0------|
D|-- 2------------ 4 4------------|---- 0---------- 2---- 2 2------|
A| 3-------------- 5---------- 5--|--------------------------------|
E|--------------------------------| 3---------- 3-- 0--------------|
http://classicalguitartablature.blogspot.com/
E|---- 3-- 3-- 5-- 7---------- 5--|---- 3--------------------------|
B| 5-- 5-- 5-- 5-- 5-- 5-- 7-- 0--|---- 0--------------------------|
G| 5-- 5-- 5-- 5------ 5------ 0--|---- 0--------------------------|
D|--------------------------------|--------------------------------|
A| 3-------------- 5--------------|--------------------------------|
E|--------------------------------| 3------------------------------|
http://classicalguitartablature.blogspot.com/

0 ความคิดเห็น:

แสดงความคิดเห็น